ISO-10303-21;
HEADER;
FILE_DESCRIPTION (( 'STEP AP214' ),
    '1' );
FILE_NAME ('145145.STEP',
    '2019-06-06T01:54:48',
    ( 'user' ),
    ( 'Î¢ÈíÖÐ¹ú' ),
    'SwSTEP 2.0',
    'SolidWorks 2016',
    '' );
FILE_SCHEMA (( 'AUTOMOTIVE_DESIGN' ));
ENDSEC;

DATA;
#1 = AXIS2_PLACEMENT_3D ( 'NONE', #289, #107, #195 ) ;
#2 = DIRECTION ( 'NONE',  ( 0.0000000000000000000, 0.0000000000000000000, 1.000000000000000000 ) ) ;
#3 = PRESENTATION_LAYER_ASSIGNMENT (  '', '', ( #315 ) ) ;
#4 = ADVANCED_FACE ( 'NONE', ( #322 ), #110, .F. ) ;
#5 = SURFACE_SIDE_STYLE ('',( #9 ) ) ;
#6 = ORIENTED_EDGE ( 'NONE', *, *, #301, .F. ) ;
#7 = CIRCLE ( 'NONE', #24, 4.609999999999999400 ) ;
#8 = CARTESIAN_POINT ( 'NONE',  ( -1.513977515241453200, 0.0000000000000000000, 0.0000000000000000000 ) ) ;
#9 = SURFACE_STYLE_FILL_AREA ( #111 ) ;
#10 = DIRECTION ( 'NONE',  ( 0.0000000000000000000, 0.0000000000000000000, -1.000000000000000000 ) ) ;
#11 = DIRECTION ( 'NONE',  ( -0.0000000000000000000, -1.000000000000000000, -0.0000000000000000000 ) ) ;
#12 = EDGE_CURVE ( 'NONE', #271, #214, #176, .T. ) ;
#13 = CARTESIAN_POINT ( 'NONE',  ( 40.54602248475854500, 0.0000000000000000000, 0.0000000000000000000 ) ) ;
#14 = CIRCLE ( 'NONE', #157, 35.95000000000000300 ) ;
#15 = ORIENTED_EDGE ( 'NONE', *, *, #222, .F. ) ;
#16 = DIRECTION ( 'NONE',  ( -1.000000000000000000, -0.0000000000000000000, -0.0000000000000000000 ) ) ;
#17 = CIRCLE ( 'NONE', #347, 2.500000000000000000 ) ;
#18 = CARTESIAN_POINT ( 'NONE',  ( 3.096022484758546200, 0.0000000000000000000, -2.822810872034648900E-016 ) ) ;
#19 = SURFACE_STYLE_FILL_AREA ( #118 ) ;
#20 = EDGE_CURVE ( 'NONE', #67, #100, #85, .T. ) ;
#21 = DIRECTION ( 'NONE',  ( 0.0000000000000000000, 1.000000000000000000, 0.0000000000000000000 ) ) ;
#22 = ORIENTED_EDGE ( 'NONE', *, *, #12, .F. ) ;
#23 = EDGE_LOOP ( 'NONE', ( #22, #335, #264 ) ) ;
#24 = AXIS2_PLACEMENT_3D ( 'NONE', #167, #54, #2 ) ;
#25 = PRODUCT_DEFINITION ( 'Î´Öª', '', #42, #108 ) ;
#26 = DIRECTION ( 'NONE',  ( 0.0000000000000000000, 0.0000000000000000000, 1.000000000000000000 ) ) ;
#27 = MECHANICAL_DESIGN_GEOMETRIC_PRESENTATION_REPRESENTATION (  '', ( #315 ), #45 ) ;
#28 = CYLINDRICAL_SURFACE ( 'NONE', #207, 2.500000000000000000 ) ;
#29 = DIRECTION ( 'NONE',  ( 0.0000000000000000000, 1.224646799147353200E-016, -1.000000000000000000 ) ) ;
#30 = DIRECTION ( 'NONE',  ( 0.0000000000000000000, 0.0000000000000000000, 1.000000000000000000 ) ) ;
#31 = VERTEX_POINT ( 'NONE', #18 ) ;
#32 = EDGE_CURVE ( 'NONE', #271, #184, #307, .T. ) ;
#33 =( LENGTH_UNIT ( ) NAMED_UNIT ( * ) SI_UNIT ( .MILLI., .METRE. ) );
#34 = ADVANCED_FACE ( 'NONE', ( #283 ), #35, .T. ) ;
#35 = CYLINDRICAL_SURFACE ( 'NONE', #178, 2.499999999999999600 ) ;
#36 = ORIENTED_EDGE ( 'NONE', *, *, #189, .T. ) ;
#37 = CIRCLE ( 'NONE', #203, 2.500000000000000000 ) ;
#38 = CARTESIAN_POINT ( 'NONE',  ( -0.8160621761658039000, 0.0000000000000000000, 2.500000000000000000 ) ) ;
#39 = PRODUCT_CONTEXT ( 'NONE', #141, 'mechanical' ) ;
#40 = ORIENTED_EDGE ( 'NONE', *, *, #136, .T. ) ;
#41 = AXIS2_PLACEMENT_3D ( 'NONE', #8, #219, #259 ) ;
#42 = PRODUCT_DEFINITION_FORMATION_WITH_SPECIFIED_SOURCE ( 'ÈÎºÎ', '', #139, .NOT_KNOWN. ) ;
#43 = CARTESIAN_POINT ( 'NONE',  ( 2.359276930312052700, -3.061616997868382600E-016, 2.499999999999999600 ) ) ;
#44 = FILL_AREA_STYLE_COLOUR ( '', #239 ) ;
#45 =( GEOMETRIC_REPRESENTATION_CONTEXT ( 3 ) GLOBAL_UNCERTAINTY_ASSIGNED_CONTEXT ( ( #272 ) ) GLOBAL_UNIT_ASSIGNED_CONTEXT ( ( #245, #64, #224 ) ) REPRESENTATION_CONTEXT ( 'NONE', 'WORKASPACE' ) );
#46 = ORIENTED_EDGE ( 'NONE', *, *, #155, .T. ) ;
#47 = CIRCLE ( 'NONE', #170, 4.609999999999999400 ) ;
#48 = EDGE_CURVE ( 'NONE', #125, #181, #14, .T. ) ;
#49 = DIRECTION ( 'NONE',  ( 0.0000000000000000000, 1.224646799147353200E-016, -1.000000000000000000 ) ) ;
#50 = CARTESIAN_POINT ( 'NONE',  ( 5.206022484758547000, 0.0000000000000000000, 3.553601513866660200E-017 ) ) ;
#51 = DIRECTION ( 'NONE',  ( 0.0000000000000000000, 0.0000000000000000000, 1.000000000000000000 ) ) ;
#52 = ORIENTED_EDGE ( 'NONE', *, *, #136, .F. ) ;
#53 = CIRCLE ( 'NONE', #58, 2.500000000000000000 ) ;
#54 = DIRECTION ( 'NONE',  ( 0.0000000000000000000, 1.000000000000000000, -0.0000000000000000000 ) ) ;
#55 =( GEOMETRIC_REPRESENTATION_CONTEXT ( 3 ) GLOBAL_UNCERTAINTY_ASSIGNED_CONTEXT ( ( #220 ) ) GLOBAL_UNIT_ASSIGNED_CONTEXT ( ( #33, #215, #57 ) ) REPRESENTATION_CONTEXT ( 'NONE', 'WORKASPACE' ) );
#56 = PRODUCT_RELATED_PRODUCT_CATEGORY ( 'part', '', ( #139 ) ) ;
#57 =( NAMED_UNIT ( * ) SI_UNIT ( $, .STERADIAN. ) SOLID_ANGLE_UNIT ( ) );
#58 = AXIS2_PLACEMENT_3D ( 'NONE', #228, #308, #285 ) ;
#59 = MANIFOLD_SOLID_BREP ( 'Ðý×ª1', #77 ) ;
#60 = DIRECTION ( 'NONE',  ( 0.0000000000000000000, 0.0000000000000000000, 1.000000000000000000 ) ) ;
#61 = ADVANCED_FACE ( 'NONE', ( #298 ), #227, .F. ) ;
#62 = EDGE_LOOP ( 'NONE', ( #70, #36, #52, #6 ) ) ;
#63 = SPHERICAL_SURFACE ( 'NONE', #130, 4.609999999999999400 ) ;
#64 =( NAMED_UNIT ( * ) PLANE_ANGLE_UNIT ( ) SI_UNIT ( $, .RADIAN. ) );
#65 =( NAMED_UNIT ( * ) SI_UNIT ( $, .STERADIAN. ) SOLID_ANGLE_UNIT ( ) );
#66 = AXIS2_PLACEMENT_3D ( 'NONE', #273, #98, #69 ) ;
#67 = VERTEX_POINT ( 'NONE', #43 ) ;
#68 = DIRECTION ( 'NONE',  ( -0.0000000000000000000, -1.000000000000000000, -0.0000000000000000000 ) ) ;
#69 = DIRECTION ( 'NONE',  ( 0.0000000000000000000, 0.0000000000000000000, -1.000000000000000000 ) ) ;
#70 = ORIENTED_EDGE ( 'NONE', *, *, #206, .T. ) ;
#71 = LINE ( 'NONE', #299, #344 ) ;
#72 = ORIENTED_EDGE ( 'NONE', *, *, #172, .T. ) ;
#73 = CARTESIAN_POINT ( 'NONE',  ( 1.332768039205039600, -3.061616997868382600E-016, 2.499999999999999600 ) ) ;
#74 = MANIFOLD_SOLID_BREP ( 'Ðý×ª2', #300 ) ;
#75 = DIRECTION ( 'NONE',  ( 0.0000000000000000000, 0.0000000000000000000, 1.000000000000000000 ) ) ;
#76 = AXIS2_PLACEMENT_3D ( 'NONE', #175, #200, #10 ) ;
#77 = CLOSED_SHELL ( 'NONE', ( #140, #218, #296, #113, #171, #241 ) ) ;
#78 = DIRECTION ( 'NONE',  ( -1.000000000000000000, -0.0000000000000000000, -0.0000000000000000000 ) ) ;
#79 = VECTOR ( 'NONE', #197, 1000.000000000000000 ) ;
#80 = COLOUR_RGB ( '',1.000000000000000000, 1.000000000000000000, 1.000000000000000000 ) ;
#81 =( NAMED_UNIT ( * ) PLANE_ANGLE_UNIT ( ) SI_UNIT ( $, .RADIAN. ) );
#82 = DIRECTION ( 'NONE',  ( -1.000000000000000000, -0.0000000000000000000, -0.0000000000000000000 ) ) ;
#83 = ORIENTED_EDGE ( 'NONE', *, *, #327, .F. ) ;
#84 = AXIS2_PLACEMENT_3D ( 'NONE', #204, #234, #152 ) ;
#85 = CIRCLE ( 'NONE', #101, 2.499999999999999100 ) ;
#86 = ADVANCED_FACE ( 'NONE', ( #287 ), #135, .F. ) ;
#87 = SPHERICAL_SURFACE ( 'NONE', #329, 4.610000000000000300 ) ;
#88 = CARTESIAN_POINT ( 'NONE',  ( 1.332768039205039600, 0.0000000000000000000, 0.0000000000000000000 ) ) ;
#89 = DIRECTION ( 'NONE',  ( 0.0000000000000000000, 0.0000000000000000000, -1.000000000000000000 ) ) ;
#90 = COLOUR_RGB ( '',1.000000000000000000, 1.000000000000000000, 1.000000000000000000 ) ;
#91 = EDGE_LOOP ( 'NONE', ( #231, #190, #150 ) ) ;
#92 = ORIENTED_EDGE ( 'NONE', *, *, #235, .F. ) ;
#93 = SURFACE_STYLE_USAGE ( .BOTH. , #268 ) ;
#94 =( LENGTH_UNIT ( ) NAMED_UNIT ( * ) SI_UNIT ( .MILLI., .METRE. ) );
#95 = DIRECTION ( 'NONE',  ( 0.0000000000000000000, -1.224646799147353200E-016, 1.000000000000000000 ) ) ;
#96 = CIRCLE ( 'NONE', #192, 4.610000000000000300 ) ;
#97 = AXIS2_PLACEMENT_3D ( 'NONE', #330, #11, #123 ) ;
#98 = DIRECTION ( 'NONE',  ( 0.0000000000000000000, -1.000000000000000000, 0.0000000000000000000 ) ) ;
#99 = DIRECTION ( 'NONE',  ( 0.0000000000000000000, 0.0000000000000000000, 1.000000000000000000 ) ) ;
#100 = VERTEX_POINT ( 'NONE', #328 ) ;
#101 = AXIS2_PLACEMENT_3D ( 'NONE', #202, #16, #180 ) ;
#102 = FACE_OUTER_BOUND ( 'NONE', #62, .T. ) ;
#103 = DIRECTION ( 'NONE',  ( 0.0000000000000000000, -1.000000000000000000, -1.224646799147353200E-016 ) ) ;
#104 = DIRECTION ( 'NONE',  ( 0.0000000000000000000, 0.0000000000000000000, 1.000000000000000000 ) ) ;
#105 = CARTESIAN_POINT ( 'NONE',  ( 4.683054119047373100, 0.0000000000000000000, 0.0000000000000000000 ) ) ;
#106 = EDGE_LOOP ( 'NONE', ( #185, #117, #217, #225 ) ) ;
#107 = DIRECTION ( 'NONE',  ( 0.0000000000000000000, 0.0000000000000000000, 1.000000000000000000 ) ) ;
#108 = PRODUCT_DEFINITION_CONTEXT ( 'detailed design', #145, 'design' ) ;
#109 = CARTESIAN_POINT ( 'NONE',  ( 40.54602248475854500, 0.0000000000000000000, 0.0000000000000000000 ) ) ;
#110 = SPHERICAL_SURFACE ( 'NONE', #84, 4.609999999999999400 ) ;
#111 = FILL_AREA_STYLE ('',( #143 ) ) ;
#112 = ORIENTED_EDGE ( 'NONE', *, *, #321, .F. ) ;
#113 = ADVANCED_FACE ( 'NONE', ( #336 ), #258, .T. ) ;
#114 = AXIS2_PLACEMENT_3D ( 'NONE', #50, #187, #29 ) ;
#115 = DIRECTION ( 'NONE',  ( 0.0000000000000000000, 1.224646799147353200E-016, -1.000000000000000000 ) ) ;
#116 = DIRECTION ( 'NONE',  ( -1.000000000000000000, -0.0000000000000000000, -0.0000000000000000000 ) ) ;
#117 = ORIENTED_EDGE ( 'NONE', *, *, #327, .T. ) ;
#118 = FILL_AREA_STYLE ('',( #147 ) ) ;
#119 = SURFACE_SIDE_STYLE ('',( #149 ) ) ;
#120 = AXIS2_PLACEMENT_3D ( 'NONE', #121, #270, #95 ) ;
#121 = CARTESIAN_POINT ( 'NONE',  ( -1.513977515241453200, 0.0000000000000000000, 0.0000000000000000000 ) ) ;
#122 = DIRECTION ( 'NONE',  ( -1.000000000000000000, -0.0000000000000000000, -0.0000000000000000000 ) ) ;
#123 = DIRECTION ( 'NONE',  ( 0.0000000000000000000, 0.0000000000000000000, -1.000000000000000000 ) ) ;
#124 = DIRECTION ( 'NONE',  ( -1.000000000000000000, -0.0000000000000000000, -0.0000000000000000000 ) ) ;
#125 = VERTEX_POINT ( 'NONE', #154 ) ;
#126 = FACE_OUTER_BOUND ( 'NONE', #23, .T. ) ;
#127 = CARTESIAN_POINT ( 'NONE',  ( 4.683054119047373100, 0.0000000000000000000, 0.0000000000000000000 ) ) ;
#128 = CARTESIAN_POINT ( 'NONE',  ( 2.359276930312053100, 0.0000000000000000000, 0.0000000000000000000 ) ) ;
#129 = DIRECTION ( 'NONE',  ( 0.0000000000000000000, 0.0000000000000000000, 1.000000000000000000 ) ) ;
#130 = AXIS2_PLACEMENT_3D ( 'NONE', #333, #164, #131 ) ;
#131 = DIRECTION ( 'NONE',  ( 0.0000000000000000000, 0.0000000000000000000, 1.000000000000000000 ) ) ;
#132 = UNCERTAINTY_MEASURE_WITH_UNIT (LENGTH_MEASURE( 1.000000000000000100E-005 ), #137, 'distance_accuracy_value', 'NONE');
#133 = VECTOR ( 'NONE', #260, 1000.000000000000000 ) ;
#134 = VERTEX_POINT ( 'NONE', #311 ) ;
#135 = SPHERICAL_SURFACE ( 'NONE', #76, 35.95000000000000300 ) ;
#136 = EDGE_CURVE ( 'NONE', #237, #186, #53, .T. ) ;
#137 =( LENGTH_UNIT ( ) NAMED_UNIT ( * ) SI_UNIT ( .MILLI., .METRE. ) );
#138 = STYLED_ITEM ( 'NONE', ( #216 ), #59 ) ;
#139 = PRODUCT ( '145145', '145145', '', ( #39 ) ) ;
#140 = ADVANCED_FACE ( 'NONE', ( #126 ), #63, .T. ) ;
#141 = APPLICATION_CONTEXT ( 'automotive_design' ) ;
#142 = EDGE_LOOP ( 'NONE', ( #291, #156, #211 ) ) ;
#143 = FILL_AREA_STYLE_COLOUR ( '', #80 ) ;
#144 = LINE ( 'NONE', #325, #133 ) ;
#145 = APPLICATION_CONTEXT ( 'automotive_design' ) ;
#146 = ORIENTED_EDGE ( 'NONE', *, *, #309, .T. ) ;
#147 = FILL_AREA_STYLE_COLOUR ( '', #90 ) ;
#148 = DIRECTION ( 'NONE',  ( 0.0000000000000000000, 0.0000000000000000000, 1.000000000000000000 ) ) ;
#149 = SURFACE_STYLE_FILL_AREA ( #302 ) ;
#150 = ORIENTED_EDGE ( 'NONE', *, *, #48, .T. ) ;
#151 = STYLED_ITEM ( 'NONE', ( #275 ), #161 ) ;
#152 = DIRECTION ( 'NONE',  ( 0.0000000000000000000, 0.0000000000000000000, -1.000000000000000000 ) ) ;
#153 = LINE ( 'NONE', #38, #79 ) ;
#154 = CARTESIAN_POINT ( 'NONE',  ( 4.683054119047374000, 0.0000000000000000000, -2.499999999999996000 ) ) ;
#155 = EDGE_CURVE ( 'NONE', #237, #134, #199, .T. ) ;
#156 = ORIENTED_EDGE ( 'NONE', *, *, #339, .T. ) ;
#157 = AXIS2_PLACEMENT_3D ( 'NONE', #177, #331, #148 ) ;
#158 = CARTESIAN_POINT ( 'NONE',  ( 2.359276930312053100, 0.0000000000000000000, 2.500000000000000000 ) ) ;
#159 = CARTESIAN_POINT ( 'NONE',  ( 1.332768039205039600, 0.0000000000000000000, -2.499999999999999600 ) ) ;
#160 = CIRCLE ( 'NONE', #266, 2.500000000000000000 ) ;
#161 = ADVANCED_BREP_SHAPE_REPRESENTATION ( '145145', ( #59, #74, #1 ), #55 ) ;
#162 = DIRECTION ( 'NONE',  ( -1.000000000000000000, -0.0000000000000000000, -0.0000000000000000000 ) ) ;
#163 = PRESENTATION_STYLE_ASSIGNMENT (( #93 ) ) ;
#164 = DIRECTION ( 'NONE',  ( 0.0000000000000000000, 1.000000000000000000, 0.0000000000000000000 ) ) ;
#165 = ORIENTED_EDGE ( 'NONE', *, *, #288, .T. ) ;
#166 = ORIENTED_EDGE ( 'NONE', *, *, #48, .F. ) ;
#167 = CARTESIAN_POINT ( 'NONE',  ( -1.513977515241453200, 0.0000000000000000000, 0.0000000000000000000 ) ) ;
#168 = EDGE_LOOP ( 'NONE', ( #243, #146, #166 ) ) ;
#169 = CIRCLE ( 'NONE', #238, 2.500000000000000000 ) ;
#170 = AXIS2_PLACEMENT_3D ( 'NONE', #256, #103, #49 ) ;
#171 = ADVANCED_FACE ( 'NONE', ( #191 ), #319, .T. ) ;
#172 = EDGE_CURVE ( 'NONE', #31, #67, #47, .T. ) ;
#173 = AXIS2_PLACEMENT_3D ( 'NONE', #342, #230, #26 ) ;
#174 = EDGE_LOOP ( 'NONE', ( #317, #40, #257 ) ) ;
#175 = CARTESIAN_POINT ( 'NONE',  ( 40.54602248475854500, 0.0000000000000000000, 0.0000000000000000000 ) ) ;
#176 = CIRCLE ( 'NONE', #66, 4.609999999999999400 ) ;
#177 = CARTESIAN_POINT ( 'NONE',  ( 40.54602248475854500, 0.0000000000000000000, 0.0000000000000000000 ) ) ;
#178 = AXIS2_PLACEMENT_3D ( 'NONE', #305, #122, #303 ) ;
#179 = CIRCLE ( 'NONE', #223, 2.499999999999999100 ) ;
#180 = DIRECTION ( 'NONE',  ( 0.0000000000000000000, 0.0000000000000000000, 1.000000000000000000 ) ) ;
#181 = VERTEX_POINT ( 'NONE', #281 ) ;
#182 = DIRECTION ( 'NONE',  ( -0.0000000000000000000, -1.000000000000000000, -0.0000000000000000000 ) ) ;
#183 = CARTESIAN_POINT ( 'NONE',  ( 2.359276930312052700, 0.0000000000000000000, 0.0000000000000000000 ) ) ;
#184 = VERTEX_POINT ( 'NONE', #316 ) ;
#185 = ORIENTED_EDGE ( 'NONE', *, *, #265, .T. ) ;
#186 = VERTEX_POINT ( 'NONE', #159 ) ;
#187 = DIRECTION ( 'NONE',  ( 0.0000000000000000000, -1.000000000000000000, -1.224646799147353200E-016 ) ) ;
#188 = AXIS2_PLACEMENT_3D ( 'NONE', #233, #78, #104 ) ;
#189 = EDGE_CURVE ( 'NONE', #184, #186, #244, .T. ) ;
#190 = ORIENTED_EDGE ( 'NONE', *, *, #251, .F. ) ;
#191 = FACE_OUTER_BOUND ( 'NONE', #248, .T. ) ;
#192 = AXIS2_PLACEMENT_3D ( 'NONE', #338, #286, #51 ) ;
#193 = CARTESIAN_POINT ( 'NONE',  ( 2.359276930312053100, 0.0000000000000000000, 0.0000000000000000000 ) ) ;
#194 = PRESENTATION_LAYER_ASSIGNMENT (  '', '', ( #138 ) ) ;
#195 = DIRECTION ( 'NONE',  ( 1.000000000000000000, 0.0000000000000000000, 0.0000000000000000000 ) ) ;
#196 = ADVANCED_FACE ( 'NONE', ( #250 ), #232, .T. ) ;
#197 = DIRECTION ( 'NONE',  ( -1.000000000000000000, -0.0000000000000000000, -0.0000000000000000000 ) ) ;
#198 = ORIENTED_EDGE ( 'NONE', *, *, #288, .F. ) ;
#199 = CIRCLE ( 'NONE', #114, 4.610000000000000300 ) ;
#200 = DIRECTION ( 'NONE',  ( -0.0000000000000000000, -1.000000000000000000, -0.0000000000000000000 ) ) ;
#201 = DIRECTION ( 'NONE',  ( 0.0000000000000000000, 0.0000000000000000000, -1.000000000000000000 ) ) ;
#202 = CARTESIAN_POINT ( 'NONE',  ( 2.359276930312052700, 0.0000000000000000000, 0.0000000000000000000 ) ) ;
#203 = AXIS2_PLACEMENT_3D ( 'NONE', #128, #340, #278 ) ;
#204 = CARTESIAN_POINT ( 'NONE',  ( -1.513977515241453200, 0.0000000000000000000, 0.0000000000000000000 ) ) ;
#205 = ORIENTED_EDGE ( 'NONE', *, *, #301, .T. ) ;
#206 = EDGE_CURVE ( 'NONE', #214, #184, #37, .T. ) ;
#207 = AXIS2_PLACEMENT_3D ( 'NONE', #313, #280, #75 ) ;
#208 = CARTESIAN_POINT ( 'NONE',  ( -1.513977515241453200, 0.0000000000000000000, 0.0000000000000000000 ) ) ;
#209 = MECHANICAL_DESIGN_GEOMETRIC_PRESENTATION_REPRESENTATION (  '', ( #138 ), #294 ) ;
#210 = CARTESIAN_POINT ( 'NONE',  ( -0.8160621761658039000, 3.061616997868383100E-016, -2.500000000000000000 ) ) ;
#211 = ORIENTED_EDGE ( 'NONE', *, *, #235, .T. ) ;
#212 = SPHERICAL_SURFACE ( 'NONE', #41, 4.609999999999999400 ) ;
#213 = CARTESIAN_POINT ( 'NONE',  ( 4.683054119047374000, -3.061616997868378700E-016, 2.499999999999996000 ) ) ;
#214 = VERTEX_POINT ( 'NONE', #158 ) ;
#215 =( NAMED_UNIT ( * ) PLANE_ANGLE_UNIT ( ) SI_UNIT ( $, .RADIAN. ) );
#216 = PRESENTATION_STYLE_ASSIGNMENT (( #269 ) ) ;
#217 = ORIENTED_EDGE ( 'NONE', *, *, #20, .F. ) ;
#218 = ADVANCED_FACE ( 'NONE', ( #102 ), #28, .T. ) ;
#219 = DIRECTION ( 'NONE',  ( -0.0000000000000000000, -1.000000000000000000, -0.0000000000000000000 ) ) ;
#220 = UNCERTAINTY_MEASURE_WITH_UNIT (LENGTH_MEASURE( 1.000000000000000100E-005 ), #33, 'distance_accuracy_value', 'NONE');
#221 = CIRCLE ( 'NONE', #312, 35.95000000000000300 ) ;
#222 = EDGE_CURVE ( 'NONE', #186, #134, #96, .T. ) ;
#223 = AXIS2_PLACEMENT_3D ( 'NONE', #183, #162, #129 ) ;
#224 =( NAMED_UNIT ( * ) SI_UNIT ( $, .STERADIAN. ) SOLID_ANGLE_UNIT ( ) );
#225 = ORIENTED_EDGE ( 'NONE', *, *, #346, .F. ) ;
#226 = CIRCLE ( 'NONE', #290, 2.500000000000000000 ) ;
#227 = SPHERICAL_SURFACE ( 'NONE', #332, 35.95000000000000300 ) ;
#228 = CARTESIAN_POINT ( 'NONE',  ( 1.332768039205039600, 0.0000000000000000000, 0.0000000000000000000 ) ) ;
#229 = ORIENTED_EDGE ( 'NONE', *, *, #339, .F. ) ;
#230 = DIRECTION ( 'NONE',  ( -1.000000000000000000, -0.0000000000000000000, -0.0000000000000000000 ) ) ;
#231 = ORIENTED_EDGE ( 'NONE', *, *, #309, .F. ) ;
#232 = CYLINDRICAL_SURFACE ( 'NONE', #173, 2.499999999999999600 ) ;
#233 = CARTESIAN_POINT ( 'NONE',  ( -0.8160621761658039000, 0.0000000000000000000, 0.0000000000000000000 ) ) ;
#234 = DIRECTION ( 'NONE',  ( -0.0000000000000000000, -1.000000000000000000, -0.0000000000000000000 ) ) ;
#235 = EDGE_CURVE ( 'NONE', #100, #67, #179, .T. ) ;
#236 =( NAMED_UNIT ( * ) SI_UNIT ( $, .STERADIAN. ) SOLID_ANGLE_UNIT ( ) );
#237 = VERTEX_POINT ( 'NONE', #73 ) ;
#238 = AXIS2_PLACEMENT_3D ( 'NONE', #105, #124, #276 ) ;
#239 = COLOUR_RGB ( '',1.000000000000000000, 1.000000000000000000, 1.000000000000000000 ) ;
#240 = VECTOR ( 'NONE', #341, 1000.000000000000000 ) ;
#241 = ADVANCED_FACE ( 'NONE', ( #304 ), #295, .T. ) ;
#242 = DIRECTION ( 'NONE',  ( -1.000000000000000000, -0.0000000000000000000, -0.0000000000000000000 ) ) ;
#243 = ORIENTED_EDGE ( 'NONE', *, *, #265, .F. ) ;
#244 = LINE ( 'NONE', #210, #240 ) ;
#245 =( LENGTH_UNIT ( ) NAMED_UNIT ( * ) SI_UNIT ( .MILLI., .METRE. ) );
#246 =( NAMED_UNIT ( * ) PLANE_ANGLE_UNIT ( ) SI_UNIT ( $, .RADIAN. ) );
#247 = ORIENTED_EDGE ( 'NONE', *, *, #12, .T. ) ;
#248 = EDGE_LOOP ( 'NONE', ( #255, #165, #205, #112 ) ) ;
#249 = VERTEX_POINT ( 'NONE', #213 ) ;
#250 = FACE_OUTER_BOUND ( 'NONE', #106, .T. ) ;
#251 = EDGE_CURVE ( 'NONE', #125, #249, #169, .T. ) ;
#252 = PRODUCT_DEFINITION_SHAPE ( 'NONE', 'NONE',  #25 ) ;
#253 = AXIS2_PLACEMENT_3D ( 'NONE', #208, #21, #30 ) ;
#254 = PRESENTATION_LAYER_ASSIGNMENT (  '', '', ( #151 ) ) ;
#255 = ORIENTED_EDGE ( 'NONE', *, *, #189, .F. ) ;
#256 = CARTESIAN_POINT ( 'NONE',  ( -1.513977515241453200, 0.0000000000000000000, 0.0000000000000000000 ) ) ;
#257 = ORIENTED_EDGE ( 'NONE', *, *, #222, .T. ) ;
#258 = SPHERICAL_SURFACE ( 'NONE', #97, 4.610000000000000300 ) ;
#259 = DIRECTION ( 'NONE',  ( 0.0000000000000000000, 0.0000000000000000000, -1.000000000000000000 ) ) ;
#260 = DIRECTION ( 'NONE',  ( -1.000000000000000000, -0.0000000000000000000, -0.0000000000000000000 ) ) ;
#261 = ORIENTED_EDGE ( 'NONE', *, *, #20, .T. ) ;
#262 = APPLICATION_PROTOCOL_DEFINITION ( 'draft international standard', 'automotive_design', 1998, #141 ) ;
#263 = DIRECTION ( 'NONE',  ( 0.0000000000000000000, 0.0000000000000000000, 1.000000000000000000 ) ) ;
#264 = ORIENTED_EDGE ( 'NONE', *, *, #206, .F. ) ;
#265 = EDGE_CURVE ( 'NONE', #249, #125, #160, .T. ) ;
#266 = AXIS2_PLACEMENT_3D ( 'NONE', #127, #277, #99 ) ;
#267 = MECHANICAL_DESIGN_GEOMETRIC_PRESENTATION_REPRESENTATION (  '', ( #151 ), #293 ) ;
#268 = SURFACE_SIDE_STYLE ('',( #19 ) ) ;
#269 = SURFACE_STYLE_USAGE ( .BOTH. , #119 ) ;
#270 = DIRECTION ( 'NONE',  ( -0.0000000000000000000, 1.000000000000000000, 1.224646799147353200E-016 ) ) ;
#271 = VERTEX_POINT ( 'NONE', #337 ) ;
#272 = UNCERTAINTY_MEASURE_WITH_UNIT (LENGTH_MEASURE( 1.000000000000000100E-005 ), #245, 'distance_accuracy_value', 'NONE');
#273 = CARTESIAN_POINT ( 'NONE',  ( -1.513977515241453200, 0.0000000000000000000, 0.0000000000000000000 ) ) ;
#274 = FACE_OUTER_BOUND ( 'NONE', #310, .T. ) ;
#275 = PRESENTATION_STYLE_ASSIGNMENT (( #323 ) ) ;
#276 = DIRECTION ( 'NONE',  ( 0.0000000000000000000, 0.0000000000000000000, 1.000000000000000000 ) ) ;
#277 = DIRECTION ( 'NONE',  ( -1.000000000000000000, -0.0000000000000000000, -0.0000000000000000000 ) ) ;
#278 = DIRECTION ( 'NONE',  ( 0.0000000000000000000, 0.0000000000000000000, 1.000000000000000000 ) ) ;
#279 = ORIENTED_EDGE ( 'NONE', *, *, #32, .F. ) ;
#280 = DIRECTION ( 'NONE',  ( -1.000000000000000000, -0.0000000000000000000, -0.0000000000000000000 ) ) ;
#281 = CARTESIAN_POINT ( 'NONE',  ( 4.596022484758544000, 0.0000000000000000000, -2.201302621467367700E-015 ) ) ;
#282 = EDGE_LOOP ( 'NONE', ( #83, #292, #345, #92 ) ) ;
#283 = FACE_OUTER_BOUND ( 'NONE', #282, .T. ) ;
#284 = FACE_OUTER_BOUND ( 'NONE', #326, .T. ) ;
#285 = DIRECTION ( 'NONE',  ( 0.0000000000000000000, 0.0000000000000000000, 1.000000000000000000 ) ) ;
#286 = DIRECTION ( 'NONE',  ( 0.0000000000000000000, 1.000000000000000000, -0.0000000000000000000 ) ) ;
#287 = FACE_OUTER_BOUND ( 'NONE', #168, .T. ) ;
#288 = EDGE_CURVE ( 'NONE', #184, #214, #226, .T. ) ;
#289 = CARTESIAN_POINT ( 'NONE',  ( 0.0000000000000000000, 0.0000000000000000000, 0.0000000000000000000 ) ) ;
#290 = AXIS2_PLACEMENT_3D ( 'NONE', #193, #82, #263 ) ;
#291 = ORIENTED_EDGE ( 'NONE', *, *, #172, .F. ) ;
#292 = ORIENTED_EDGE ( 'NONE', *, *, #251, .T. ) ;
#293 =( GEOMETRIC_REPRESENTATION_CONTEXT ( 3 ) GLOBAL_UNCERTAINTY_ASSIGNED_CONTEXT ( ( #132 ) ) GLOBAL_UNIT_ASSIGNED_CONTEXT ( ( #137, #81, #236 ) ) REPRESENTATION_CONTEXT ( 'NONE', 'WORKASPACE' ) );
#294 =( GEOMETRIC_REPRESENTATION_CONTEXT ( 3 ) GLOBAL_UNCERTAINTY_ASSIGNED_CONTEXT ( ( #343 ) ) GLOBAL_UNIT_ASSIGNED_CONTEXT ( ( #94, #246, #65 ) ) REPRESENTATION_CONTEXT ( 'NONE', 'WORKASPACE' ) );
#295 = SPHERICAL_SURFACE ( 'NONE', #253, 4.609999999999999400 ) ;
#296 = ADVANCED_FACE ( 'NONE', ( #284 ), #87, .T. ) ;
#297 = DIRECTION ( 'NONE',  ( 0.0000000000000000000, -1.000000000000000000, -1.224646799147353200E-016 ) ) ;
#298 = FACE_OUTER_BOUND ( 'NONE', #91, .T. ) ;
#299 = CARTESIAN_POINT ( 'NONE',  ( -0.5519199926577972300, 3.061616997868382600E-016, -2.499999999999999600 ) ) ;
#300 = CLOSED_SHELL ( 'NONE', ( #196, #86, #324, #4, #61, #34 ) ) ;
#301 = EDGE_CURVE ( 'NONE', #214, #237, #153, .T. ) ;
#302 = FILL_AREA_STYLE ('',( #44 ) ) ;
#303 = DIRECTION ( 'NONE',  ( 0.0000000000000000000, 0.0000000000000000000, 1.000000000000000000 ) ) ;
#304 = FACE_OUTER_BOUND ( 'NONE', #318, .T. ) ;
#305 = CARTESIAN_POINT ( 'NONE',  ( -0.5519199926577972300, 0.0000000000000000000, 0.0000000000000000000 ) ) ;
#306 = CARTESIAN_POINT ( 'NONE',  ( 5.206022484758547000, 0.0000000000000000000, 3.553601513866660200E-017 ) ) ;
#307 = CIRCLE ( 'NONE', #120, 4.609999999999999400 ) ;
#308 = DIRECTION ( 'NONE',  ( -1.000000000000000000, -0.0000000000000000000, -0.0000000000000000000 ) ) ;
#309 = EDGE_CURVE ( 'NONE', #249, #181, #221, .T. ) ;
#310 = EDGE_LOOP ( 'NONE', ( #229, #72, #261 ) ) ;
#311 = CARTESIAN_POINT ( 'NONE',  ( 0.5960224847585465800, 0.0000000000000000000, -2.467450720647983200E-016 ) ) ;
#312 = AXIS2_PLACEMENT_3D ( 'NONE', #109, #297, #115 ) ;
#313 = CARTESIAN_POINT ( 'NONE',  ( -0.8160621761658039000, 0.0000000000000000000, 0.0000000000000000000 ) ) ;
#314 = ORIENTED_EDGE ( 'NONE', *, *, #321, .T. ) ;
#315 = STYLED_ITEM ( 'NONE', ( #163 ), #74 ) ;
#316 = CARTESIAN_POINT ( 'NONE',  ( 2.359276930312053100, 3.061616997868383100E-016, -2.500000000000000000 ) ) ;
#317 = ORIENTED_EDGE ( 'NONE', *, *, #155, .F. ) ;
#318 = EDGE_LOOP ( 'NONE', ( #279, #247, #198 ) ) ;
#319 = CYLINDRICAL_SURFACE ( 'NONE', #188, 2.500000000000000000 ) ;
#320 = APPLICATION_PROTOCOL_DEFINITION ( 'draft international standard', 'automotive_design', 1998, #145 ) ;
#321 = EDGE_CURVE ( 'NONE', #186, #237, #17, .T. ) ;
#322 = FACE_OUTER_BOUND ( 'NONE', #142, .T. ) ;
#323 = SURFACE_STYLE_USAGE ( .BOTH. , #5 ) ;
#324 = ADVANCED_FACE ( 'NONE', ( #274 ), #212, .F. ) ;
#325 = CARTESIAN_POINT ( 'NONE',  ( -0.5519199926577972300, 0.0000000000000000000, 2.499999999999999600 ) ) ;
#326 = EDGE_LOOP ( 'NONE', ( #314, #46, #15 ) ) ;
#327 = EDGE_CURVE ( 'NONE', #125, #100, #71, .T. ) ;
#328 = CARTESIAN_POINT ( 'NONE',  ( 2.359276930312052700, 0.0000000000000000000, -2.499999999999999600 ) ) ;
#329 = AXIS2_PLACEMENT_3D ( 'NONE', #306, #182, #89 ) ;
#330 = CARTESIAN_POINT ( 'NONE',  ( 5.206022484758547000, 0.0000000000000000000, 3.553601513866660200E-017 ) ) ;
#331 = DIRECTION ( 'NONE',  ( 0.0000000000000000000, 1.000000000000000000, -0.0000000000000000000 ) ) ;
#332 = AXIS2_PLACEMENT_3D ( 'NONE', #13, #68, #201 ) ;
#333 = CARTESIAN_POINT ( 'NONE',  ( -1.513977515241453200, 0.0000000000000000000, 0.0000000000000000000 ) ) ;
#334 = SHAPE_DEFINITION_REPRESENTATION ( #252, #161 ) ;
#335 = ORIENTED_EDGE ( 'NONE', *, *, #32, .T. ) ;
#336 = FACE_OUTER_BOUND ( 'NONE', #174, .T. ) ;
#337 = CARTESIAN_POINT ( 'NONE',  ( 3.096022484758546200, 0.0000000000000000000, 2.822810872034648900E-016 ) ) ;
#338 = CARTESIAN_POINT ( 'NONE',  ( 5.206022484758547000, 0.0000000000000000000, 3.553601513866660200E-017 ) ) ;
#339 = EDGE_CURVE ( 'NONE', #31, #100, #7, .T. ) ;
#340 = DIRECTION ( 'NONE',  ( -1.000000000000000000, -0.0000000000000000000, -0.0000000000000000000 ) ) ;
#341 = DIRECTION ( 'NONE',  ( -1.000000000000000000, -0.0000000000000000000, -0.0000000000000000000 ) ) ;
#342 = CARTESIAN_POINT ( 'NONE',  ( -0.5519199926577972300, 0.0000000000000000000, 0.0000000000000000000 ) ) ;
#343 = UNCERTAINTY_MEASURE_WITH_UNIT (LENGTH_MEASURE( 1.000000000000000100E-005 ), #94, 'distance_accuracy_value', 'NONE');
#344 = VECTOR ( 'NONE', #116, 1000.000000000000000 ) ;
#345 = ORIENTED_EDGE ( 'NONE', *, *, #346, .T. ) ;
#346 = EDGE_CURVE ( 'NONE', #249, #67, #144, .T. ) ;
#347 = AXIS2_PLACEMENT_3D ( 'NONE', #88, #242, #60 ) ;
ENDSEC;
END-ISO-10303-21;
