ISO-10303-21;
HEADER;
FILE_DESCRIPTION (( 'STEP AP214' ),
    '1' );
FILE_NAME ('145143.STEP',
    '2019-06-05T06:38:41',
    ( 'user' ),
    ( 'Î¢ÈíÖÐ¹ú' ),
    'SwSTEP 2.0',
    'SolidWorks 2016',
    '' );
FILE_SCHEMA (( 'AUTOMOTIVE_DESIGN' ));
ENDSEC;

DATA;
#1 = EDGE_LOOP ( 'NONE', ( #293, #117, #105 ) ) ;
#2 = ORIENTED_EDGE ( 'NONE', *, *, #225, .F. ) ;
#3 = ORIENTED_EDGE ( 'NONE', *, *, #35, .F. ) ;
#4 = CIRCLE ( 'NONE', #243, 25.40000000000046400 ) ;
#5 = ORIENTED_EDGE ( 'NONE', *, *, #215, .F. ) ;
#6 = AXIS2_PLACEMENT_3D ( 'NONE', #82, #291, #194 ) ;
#7 = DIRECTION ( 'NONE',  ( 0.0000000000000000000, 0.0000000000000000000, 1.000000000000000000 ) ) ;
#8 = CARTESIAN_POINT ( 'NONE',  ( -321.3509241282956700, 0.0000000000000000000, -5.558005932232330100E-015 ) ) ;
#9 = ADVANCED_FACE ( 'NONE', ( #120 ), #137, .T. ) ;
#10 = CARTESIAN_POINT ( 'NONE',  ( 73.20210687462844100, 0.0000000000000000000, 25.40000000000059500 ) ) ;
#11 = AXIS2_PLACEMENT_3D ( 'NONE', #40, #164, #30 ) ;
#12 = FILL_AREA_STYLE_COLOUR ( '', #53 ) ;
#13 = ORIENTED_EDGE ( 'NONE', *, *, #240, .F. ) ;
#14 = CYLINDRICAL_SURFACE ( 'NONE', #64, 25.39999999999999100 ) ;
#15 =( GEOMETRIC_REPRESENTATION_CONTEXT ( 3 ) GLOBAL_UNCERTAINTY_ASSIGNED_CONTEXT ( ( #115 ) ) GLOBAL_UNIT_ASSIGNED_CONTEXT ( ( #72, #262, #59 ) ) REPRESENTATION_CONTEXT ( 'NONE', 'WORKASPACE' ) );
#16 = ORIENTED_EDGE ( 'NONE', *, *, #278, .T. ) ;
#17 =( NAMED_UNIT ( * ) PLANE_ANGLE_UNIT ( ) SI_UNIT ( $, .RADIAN. ) );
#18 = DIRECTION ( 'NONE',  ( -1.000000000000000000, -0.0000000000000000000, -0.0000000000000000000 ) ) ;
#19 = CARTESIAN_POINT ( 'NONE',  ( 3519.549075871704600, 0.0000000000000000000, 0.0000000000000000000 ) ) ;
#20 = FACE_OUTER_BOUND ( 'NONE', #114, .T. ) ;
#21 = AXIS2_PLACEMENT_3D ( 'NONE', #177, #148, #157 ) ;
#22 = DIRECTION ( 'NONE',  ( 0.0000000000000000000, 0.0000000000000000000, 1.000000000000000000 ) ) ;
#23 = DIRECTION ( 'NONE',  ( -1.000000000000000000, -0.0000000000000000000, -0.0000000000000000000 ) ) ;
#24 = ORIENTED_EDGE ( 'NONE', *, *, #94, .T. ) ;
#25 = EDGE_LOOP ( 'NONE', ( #158, #81, #2, #5 ) ) ;
#26 = DIRECTION ( 'NONE',  ( 0.0000000000000000000, 0.0000000000000000000, 1.000000000000000000 ) ) ;
#27 = CIRCLE ( 'NONE', #33, 25.39999999999999100 ) ;
#28 = EDGE_LOOP ( 'NONE', ( #202, #39, #50, #226 ) ) ;
#29 = AXIS2_PLACEMENT_3D ( 'NONE', #179, #222, #221 ) ;
#30 = DIRECTION ( 'NONE',  ( 0.0000000000000000000, 0.0000000000000000000, -1.000000000000000000 ) ) ;
#31 = DIRECTION ( 'NONE',  ( 0.0000000000000000000, 0.0000000000000000000, 1.000000000000000000 ) ) ;
#32 = VERTEX_POINT ( 'NONE', #176 ) ;
#33 = AXIS2_PLACEMENT_3D ( 'NONE', #311, #344, #110 ) ;
#34 = EDGE_LOOP ( 'NONE', ( #296, #192, #201 ) ) ;
#35 = EDGE_CURVE ( 'NONE', #285, #284, #253, .T. ) ;
#36 = DIRECTION ( 'NONE',  ( 0.0000000000000000000, -1.000000000000000000, 0.0000000000000000000 ) ) ;
#37 = LINE ( 'NONE', #61, #96 ) ;
#38 = DIRECTION ( 'NONE',  ( 0.0000000000000000000, 0.0000000000000000000, 1.000000000000000000 ) ) ;
#39 = ORIENTED_EDGE ( 'NONE', *, *, #163, .T. ) ;
#40 = CARTESIAN_POINT ( 'NONE',  ( -321.3509241282956700, 0.0000000000000000000, -5.558005932232330100E-015 ) ) ;
#41 = CIRCLE ( 'NONE', #76, 494.3000000000000700 ) ;
#42 = DIRECTION ( 'NONE',  ( 0.0000000000000000000, 0.0000000000000000000, 1.000000000000000000 ) ) ;
#43 = AXIS2_PLACEMENT_3D ( 'NONE', #97, #341, #211 ) ;
#44 = CLOSED_SHELL ( 'NONE', ( #154, #9, #346, #305, #121, #342 ) ) ;
#45 = DIRECTION ( 'NONE',  ( 0.0000000000000000000, 1.000000000000000000, 0.0000000000000000000 ) ) ;
#46 = EDGE_LOOP ( 'NONE', ( #188, #216, #170 ) ) ;
#47 = CIRCLE ( 'NONE', #106, 25.39999999999999100 ) ;
#48 = DIRECTION ( 'NONE',  ( 0.0000000000000000000, 0.0000000000000000000, 1.000000000000000000 ) ) ;
#49 = CYLINDRICAL_SURFACE ( 'NONE', #21, 25.40000000000057400 ) ;
#50 = ORIENTED_EDGE ( 'NONE', *, *, #301, .F. ) ;
#51 = MECHANICAL_DESIGN_GEOMETRIC_PRESENTATION_REPRESENTATION (  '', ( #248 ), #140 ) ;
#52 = FACE_OUTER_BOUND ( 'NONE', #34, .T. ) ;
#53 = COLOUR_RGB ( '',1.000000000000000000, 1.000000000000000000, 1.000000000000000000 ) ;
#54 = FACE_OUTER_BOUND ( 'NONE', #127, .T. ) ;
#55 = AXIS2_PLACEMENT_3D ( 'NONE', #8, #259, #219 ) ;
#56 = VECTOR ( 'NONE', #150, 1000.000000000000000 ) ;
#57 = APPLICATION_CONTEXT ( 'automotive_design' ) ;
#58 = VECTOR ( 'NONE', #147, 1000.000000000000000 ) ;
#59 =( NAMED_UNIT ( * ) SI_UNIT ( $, .STERADIAN. ) SOLID_ANGLE_UNIT ( ) );
#60 = DIRECTION ( 'NONE',  ( 0.0000000000000000000, 0.0000000000000000000, 1.000000000000000000 ) ) ;
#61 = CARTESIAN_POINT ( 'NONE',  ( -151.1284751181453600, 0.0000000000000000000, 25.40000000000057400 ) ) ;
#62 = CARTESIAN_POINT ( 'NONE',  ( -402.0212655728769300, 0.0000000000000000000, 0.0000000000000000000 ) ) ;
#63 = PRESENTATION_STYLE_ASSIGNMENT (( #313 ) ) ;
#64 = AXIS2_PLACEMENT_3D ( 'NONE', #62, #308, #38 ) ;
#65 = DIRECTION ( 'NONE',  ( 0.0000000000000000000, 1.000000000000000000, 0.0000000000000000000 ) ) ;
#66 = EDGE_LOOP ( 'NONE', ( #238, #24, #325, #207 ) ) ;
#67 = CARTESIAN_POINT ( 'NONE',  ( 75.93795062155176400, 0.0000000000000000000, 25.40000000000094400 ) ) ;
#68 = PRESENTATION_STYLE_ASSIGNMENT (( #204 ) ) ;
#69 = VERTEX_POINT ( 'NONE', #67 ) ;
#70 = AXIS2_PLACEMENT_3D ( 'NONE', #71, #161, #289 ) ;
#71 = CARTESIAN_POINT ( 'NONE',  ( -321.3509241282956700, 0.0000000000000000000, -5.558005932232330100E-015 ) ) ;
#72 =( LENGTH_UNIT ( ) NAMED_UNIT ( * ) SI_UNIT ( .MILLI., .METRE. ) );
#73 = DIRECTION ( 'NONE',  ( 0.0000000000000000000, 0.0000000000000000000, 1.000000000000000000 ) ) ;
#74 = DIRECTION ( 'NONE',  ( 0.0000000000000000000, 1.000000000000000000, 0.0000000000000000000 ) ) ;
#75 = VECTOR ( 'NONE', #245, 1000.000000000000000 ) ;
#76 = AXIS2_PLACEMENT_3D ( 'NONE', #129, #162, #347 ) ;
#77 = FACE_OUTER_BOUND ( 'NONE', #28, .T. ) ;
#78 = APPLICATION_PROTOCOL_DEFINITION ( 'draft international standard', 'automotive_design', 1998, #282 ) ;
#79 = AXIS2_PLACEMENT_3D ( 'NONE', #145, #65, #26 ) ;
#80 = ORIENTED_EDGE ( 'NONE', *, *, #87, .F. ) ;
#81 = ORIENTED_EDGE ( 'NONE', *, *, #35, .T. ) ;
#82 = CARTESIAN_POINT ( 'NONE',  ( 3519.549075871704600, 0.0000000000000000000, 0.0000000000000000000 ) ) ;
#83 = CIRCLE ( 'NONE', #43, 398.1000000000000800 ) ;
#84 = ORIENTED_EDGE ( 'NONE', *, *, #309, .T. ) ;
#85 = CARTESIAN_POINT ( 'NONE',  ( -151.1284751181453600, 3.110602869834347500E-015, -25.40000000000057400 ) ) ;
#86 = PRESENTATION_STYLE_ASSIGNMENT (( #303 ) ) ;
#87 = EDGE_CURVE ( 'NONE', #284, #264, #27, .T. ) ;
#88 = SURFACE_SIDE_STYLE ('',( #119 ) ) ;
#89 = CIRCLE ( 'NONE', #174, 494.3000000000000700 ) ;
#90 = FACE_OUTER_BOUND ( 'NONE', #143, .T. ) ;
#91 = MECHANICAL_DESIGN_GEOMETRIC_PRESENTATION_REPRESENTATION (  '', ( #146 ), #213 ) ;
#92 = CARTESIAN_POINT ( 'NONE',  ( 75.93795062155179200, 0.0000000000000000000, 0.0000000000000000000 ) ) ;
#93 = ORIENTED_EDGE ( 'NONE', *, *, #215, .T. ) ;
#94 = EDGE_CURVE ( 'NONE', #181, #122, #4, .T. ) ;
#95 = FACE_OUTER_BOUND ( 'NONE', #206, .T. ) ;
#96 = VECTOR ( 'NONE', #319, 1000.000000000000000 ) ;
#97 = CARTESIAN_POINT ( 'NONE',  ( -321.3509241282956700, 0.0000000000000000000, -5.558005932232330100E-015 ) ) ;
#98 = FILL_AREA_STYLE ('',( #244 ) ) ;
#99 = AXIS2_PLACEMENT_3D ( 'NONE', #171, #18, #112 ) ;
#100 = ORIENTED_EDGE ( 'NONE', *, *, #87, .T. ) ;
#101 = EDGE_CURVE ( 'NONE', #122, #69, #37, .T. ) ;
#102 = CIRCLE ( 'NONE', #11, 398.1000000000000800 ) ;
#103 = CIRCLE ( 'NONE', #205, 25.40000000000068100 ) ;
#104 = VERTEX_POINT ( 'NONE', #242 ) ;
#105 = ORIENTED_EDGE ( 'NONE', *, *, #132, .T. ) ;
#106 = AXIS2_PLACEMENT_3D ( 'NONE', #131, #316, #7 ) ;
#107 = CARTESIAN_POINT ( 'NONE',  ( 76.74907587170437800, 0.0000000000000000000, 1.881858860479573800E-014 ) ) ;
#108 = SURFACE_STYLE_FILL_AREA ( #323 ) ;
#109 = DIRECTION ( 'NONE',  ( -0.0000000000000000000, 1.000000000000000000, 1.224646799147353200E-016 ) ) ;
#110 = DIRECTION ( 'NONE',  ( 0.0000000000000000000, 0.0000000000000000000, 1.000000000000000000 ) ) ;
#111 = APPLICATION_PROTOCOL_DEFINITION ( 'draft international standard', 'automotive_design', 1998, #57 ) ;
#112 = DIRECTION ( 'NONE',  ( 0.0000000000000000000, 0.0000000000000000000, 1.000000000000000000 ) ) ;
#113 = FACE_OUTER_BOUND ( 'NONE', #160, .T. ) ;
#114 = EDGE_LOOP ( 'NONE', ( #13, #16, #234 ) ) ;
#115 = UNCERTAINTY_MEASURE_WITH_UNIT (LENGTH_MEASURE( 1.000000000000000100E-005 ), #72, 'distance_accuracy_value', 'NONE');
#116 =( NAMED_UNIT ( * ) SI_UNIT ( $, .STERADIAN. ) SOLID_ANGLE_UNIT ( ) );
#117 = ORIENTED_EDGE ( 'NONE', *, *, #94, .F. ) ;
#118 = CARTESIAN_POINT ( 'NONE',  ( 3519.549075871704600, 0.0000000000000000000, 0.0000000000000000000 ) ) ;
#119 = SURFACE_STYLE_FILL_AREA ( #210 ) ;
#120 = FACE_OUTER_BOUND ( 'NONE', #25, .T. ) ;
#121 = ADVANCED_FACE ( 'NONE', ( #90 ), #14, .T. ) ;
#122 = VERTEX_POINT ( 'NONE', #203 ) ;
#123 = DIRECTION ( 'NONE',  ( 0.0000000000000000000, 0.0000000000000000000, 1.000000000000000000 ) ) ;
#124 = PRODUCT_CONTEXT ( 'NONE', #57, 'mechanical' ) ;
#125 = DIRECTION ( 'NONE',  ( 0.0000000000000000000, -1.224646799147353200E-016, 1.000000000000000000 ) ) ;
#126 = CARTESIAN_POINT ( 'NONE',  ( -402.0212655728769300, 0.0000000000000000000, 25.39999999999999100 ) ) ;
#127 = EDGE_LOOP ( 'NONE', ( #197, #223, #193 ) ) ;
#128 = VERTEX_POINT ( 'NONE', #198 ) ;
#129 = CARTESIAN_POINT ( 'NONE',  ( 566.8490758717042600, 0.0000000000000000000, -4.243636136220059700E-015 ) ) ;
#130 = SPHERICAL_SURFACE ( 'NONE', #295, 3439.999999999999500 ) ;
#131 = CARTESIAN_POINT ( 'NONE',  ( 73.20210687462841300, 0.0000000000000000000, 0.0000000000000000000 ) ) ;
#132 = EDGE_CURVE ( 'NONE', #181, #104, #343, .T. ) ;
#133 = CARTESIAN_POINT ( 'NONE',  ( 79.64285040566743100, 0.0000000000000000000, 0.0000000000000000000 ) ) ;
#134 = DIRECTION ( 'NONE',  ( -0.0000000000000000000, -1.000000000000000000, -0.0000000000000000000 ) ) ;
#135 =( NAMED_UNIT ( * ) PLANE_ANGLE_UNIT ( ) SI_UNIT ( $, .RADIAN. ) );
#136 = SPHERICAL_SURFACE ( 'NONE', #261, 398.1000000000000800 ) ;
#137 = CYLINDRICAL_SURFACE ( 'NONE', #268, 25.39999999999999100 ) ;
#138 = ORIENTED_EDGE ( 'NONE', *, *, #225, .T. ) ;
#139 = ORIENTED_EDGE ( 'NONE', *, *, #288, .F. ) ;
#140 =( GEOMETRIC_REPRESENTATION_CONTEXT ( 3 ) GLOBAL_UNCERTAINTY_ASSIGNED_CONTEXT ( ( #272 ) ) GLOBAL_UNIT_ASSIGNED_CONTEXT ( ( #155, #135, #336 ) ) REPRESENTATION_CONTEXT ( 'NONE', 'WORKASPACE' ) );
#141 = SPHERICAL_SURFACE ( 'NONE', #220, 398.1000000000000800 ) ;
#142 = ADVANCED_FACE ( 'NONE', ( #77 ), #49, .T. ) ;
#143 = EDGE_LOOP ( 'NONE', ( #3, #310, #93, #80 ) ) ;
#144 = CIRCLE ( 'NONE', #156, 25.39999999999999500 ) ;
#145 = CARTESIAN_POINT ( 'NONE',  ( 566.8490758717042600, 0.0000000000000000000, -4.243636136220059700E-015 ) ) ;
#146 = STYLED_ITEM ( 'NONE', ( #86 ), #287 ) ;
#147 = DIRECTION ( 'NONE',  ( -1.000000000000000000, -0.0000000000000000000, -0.0000000000000000000 ) ) ;
#148 = DIRECTION ( 'NONE',  ( -1.000000000000000000, -0.0000000000000000000, -0.0000000000000000000 ) ) ;
#149 = LINE ( 'NONE', #85, #75 ) ;
#150 = DIRECTION ( 'NONE',  ( -1.000000000000000000, -0.0000000000000000000, -0.0000000000000000000 ) ) ;
#151 = VERTEX_POINT ( 'NONE', #153 ) ;
#152 = AXIS2_PLACEMENT_3D ( 'NONE', #251, #208, #236 ) ;
#153 = CARTESIAN_POINT ( 'NONE',  ( 75.93795062155179200, 0.0000000000000000000, 25.39999999999999500 ) ) ;
#154 = ADVANCED_FACE ( 'NONE', ( #54 ), #141, .T. ) ;
#155 =( LENGTH_UNIT ( ) NAMED_UNIT ( * ) SI_UNIT ( .MILLI., .METRE. ) );
#156 = AXIS2_PLACEMENT_3D ( 'NONE', #185, #180, #292 ) ;
#157 = DIRECTION ( 'NONE',  ( 0.0000000000000000000, 0.0000000000000000000, 1.000000000000000000 ) ) ;
#158 = ORIENTED_EDGE ( 'NONE', *, *, #299, .T. ) ;
#159 = EDGE_CURVE ( 'NONE', #322, #69, #102, .T. ) ;
#160 = EDGE_LOOP ( 'NONE', ( #138, #265, #139 ) ) ;
#161 = DIRECTION ( 'NONE',  ( 0.0000000000000000000, 1.000000000000000000, 0.0000000000000000000 ) ) ;
#162 = DIRECTION ( 'NONE',  ( 0.0000000000000000000, -1.000000000000000000, 0.0000000000000000000 ) ) ;
#163 = EDGE_CURVE ( 'NONE', #181, #32, #149, .T. ) ;
#164 = DIRECTION ( 'NONE',  ( 0.0000000000000000000, -1.000000000000000000, 0.0000000000000000000 ) ) ;
#165 = CARTESIAN_POINT ( 'NONE',  ( -321.3509241282956700, 0.0000000000000000000, -5.558005932232330100E-015 ) ) ;
#166 = CIRCLE ( 'NONE', #195, 25.39999999999999500 ) ;
#167 = EDGE_CURVE ( 'NONE', #128, #285, #83, .T. ) ;
#168 = CARTESIAN_POINT ( 'NONE',  ( 566.8490758717042600, 0.0000000000000000000, -4.243636136220059700E-015 ) ) ;
#169 = EDGE_CURVE ( 'NONE', #322, #32, #273, .T. ) ;
#170 = ORIENTED_EDGE ( 'NONE', *, *, #301, .T. ) ;
#171 = CARTESIAN_POINT ( 'NONE',  ( 75.93795062155179200, 0.0000000000000000000, 0.0000000000000000000 ) ) ;
#172 = CYLINDRICAL_SURFACE ( 'NONE', #252, 25.40000000000057400 ) ;
#173 = DIRECTION ( 'NONE',  ( -1.000000000000000000, -0.0000000000000000000, -0.0000000000000000000 ) ) ;
#174 = AXIS2_PLACEMENT_3D ( 'NONE', #168, #109, #125 ) ;
#175 = PRODUCT ( '145143', '145143', '', ( #124 ) ) ;
#176 = CARTESIAN_POINT ( 'NONE',  ( 75.93795062155176400, 3.110602869834392400E-015, -25.40000000000095100 ) ) ;
#177 = CARTESIAN_POINT ( 'NONE',  ( -151.1284751181453600, 0.0000000000000000000, 0.0000000000000000000 ) ) ;
#178 = AXIS2_PLACEMENT_3D ( 'NONE', #290, #328, #73 ) ;
#179 = CARTESIAN_POINT ( 'NONE',  ( 566.8490758717042600, 0.0000000000000000000, -4.243636136220059700E-015 ) ) ;
#180 = DIRECTION ( 'NONE',  ( -1.000000000000000000, -0.0000000000000000000, -0.0000000000000000000 ) ) ;
#181 = VERTEX_POINT ( 'NONE', #280 ) ;
#182 = CARTESIAN_POINT ( 'NONE',  ( 75.93795062155179200, 3.110602869834276900E-015, -25.39999999999999900 ) ) ;
#183 = SPHERICAL_SURFACE ( 'NONE', #152, 398.1000000000000800 ) ;
#184 = SURFACE_STYLE_FILL_AREA ( #98 ) ;
#185 = CARTESIAN_POINT ( 'NONE',  ( 75.93795062155179200, 0.0000000000000000000, 0.0000000000000000000 ) ) ;
#186 = AXIS2_PLACEMENT_3D ( 'NONE', #165, #36, #232 ) ;
#187 = PRODUCT_DEFINITION_FORMATION_WITH_SPECIFIED_SOURCE ( 'ÈÎºÎ', '', #175, .NOT_KNOWN. ) ;
#188 = ORIENTED_EDGE ( 'NONE', *, *, #169, .F. ) ;
#189 = FILL_AREA_STYLE_COLOUR ( '', #260 ) ;
#190 = DIRECTION ( 'NONE',  ( 0.0000000000000000000, 0.0000000000000000000, -1.000000000000000000 ) ) ;
#191 = CARTESIAN_POINT ( 'NONE',  ( 75.93795062155179200, 0.0000000000000000000, 0.0000000000000000000 ) ) ;
#192 = ORIENTED_EDGE ( 'NONE', *, *, #266, .T. ) ;
#193 = ORIENTED_EDGE ( 'NONE', *, *, #299, .F. ) ;
#194 = DIRECTION ( 'NONE',  ( 0.0000000000000000000, 1.224646799147353200E-016, -1.000000000000000000 ) ) ;
#195 = AXIS2_PLACEMENT_3D ( 'NONE', #92, #247, #42 ) ;
#196 = ADVANCED_FACE ( 'NONE', ( #332 ), #130, .F. ) ;
#197 = ORIENTED_EDGE ( 'NONE', *, *, #266, .F. ) ;
#198 = CARTESIAN_POINT ( 'NONE',  ( 76.74907587170437800, 0.0000000000000000000, 1.881858860479573800E-014 ) ) ;
#199 = MANIFOLD_SOLID_BREP ( 'Ðý×ª3', #294 ) ;
#200 = PRODUCT_DEFINITION ( 'Î´Öª', '', #187, #237 ) ;
#201 = ORIENTED_EDGE ( 'NONE', *, *, #271, .F. ) ;
#202 = ORIENTED_EDGE ( 'NONE', *, *, #240, .T. ) ;
#203 = CARTESIAN_POINT ( 'NONE',  ( 79.64285040566743100, 0.0000000000000000000, 25.40000000000046400 ) ) ;
#204 = SURFACE_STYLE_USAGE ( .BOTH. , #283 ) ;
#205 = AXIS2_PLACEMENT_3D ( 'NONE', #191, #173, #60 ) ;
#206 = EDGE_LOOP ( 'NONE', ( #330, #100, #345 ) ) ;
#207 = ORIENTED_EDGE ( 'NONE', *, *, #309, .F. ) ;
#208 = DIRECTION ( 'NONE',  ( 0.0000000000000000000, 1.000000000000000000, 0.0000000000000000000 ) ) ;
#209 = CIRCLE ( 'NONE', #99, 25.40000000000068100 ) ;
#210 = FILL_AREA_STYLE ('',( #189 ) ) ;
#211 = DIRECTION ( 'NONE',  ( 0.0000000000000000000, -1.224646799147353000E-016, 1.000000000000000000 ) ) ;
#212 = DIRECTION ( 'NONE',  ( 1.000000000000000000, 0.0000000000000000000, 0.0000000000000000000 ) ) ;
#213 =( GEOMETRIC_REPRESENTATION_CONTEXT ( 3 ) GLOBAL_UNCERTAINTY_ASSIGNED_CONTEXT ( ( #231 ) ) GLOBAL_UNIT_ASSIGNED_CONTEXT ( ( #329, #17, #116 ) ) REPRESENTATION_CONTEXT ( 'NONE', 'WORKASPACE' ) );
#214 = CARTESIAN_POINT ( 'NONE',  ( 79.64285040566743100, 0.0000000000000000000, 0.0000000000000000000 ) ) ;
#215 = EDGE_CURVE ( 'NONE', #151, #264, #241, .T. ) ;
#216 = ORIENTED_EDGE ( 'NONE', *, *, #159, .T. ) ;
#217 = CARTESIAN_POINT ( 'NONE',  ( 72.54907587170423300, 0.0000000000000000000, 2.602350950470677800E-014 ) ) ;
#218 =( NAMED_UNIT ( * ) SI_UNIT ( $, .STERADIAN. ) SOLID_ANGLE_UNIT ( ) );
#219 = DIRECTION ( 'NONE',  ( 0.0000000000000000000, -1.224646799147353000E-016, 1.000000000000000000 ) ) ;
#220 = AXIS2_PLACEMENT_3D ( 'NONE', #258, #74, #123 ) ;
#221 = DIRECTION ( 'NONE',  ( 0.0000000000000000000, 0.0000000000000000000, 1.000000000000000000 ) ) ;
#222 = DIRECTION ( 'NONE',  ( 0.0000000000000000000, 1.000000000000000000, 0.0000000000000000000 ) ) ;
#223 = ORIENTED_EDGE ( 'NONE', *, *, #167, .T. ) ;
#224 = PRESENTATION_LAYER_ASSIGNMENT (  '', '', ( #256 ) ) ;
#225 = EDGE_CURVE ( 'NONE', #264, #284, #47, .T. ) ;
#226 = ORIENTED_EDGE ( 'NONE', *, *, #101, .F. ) ;
#227 = ADVANCED_FACE ( 'NONE', ( #20 ), #338, .F. ) ;
#228 = DIRECTION ( 'NONE',  ( -1.000000000000000000, -0.0000000000000000000, -0.0000000000000000000 ) ) ;
#229 = DIRECTION ( 'NONE',  ( -1.000000000000000000, -0.0000000000000000000, -0.0000000000000000000 ) ) ;
#230 = PRESENTATION_LAYER_ASSIGNMENT (  '', '', ( #248 ) ) ;
#231 = UNCERTAINTY_MEASURE_WITH_UNIT (LENGTH_MEASURE( 1.000000000000000100E-005 ), #329, 'distance_accuracy_value', 'NONE');
#232 = DIRECTION ( 'NONE',  ( 0.0000000000000000000, 0.0000000000000000000, -1.000000000000000000 ) ) ;
#233 = ORIENTED_EDGE ( 'NONE', *, *, #169, .T. ) ;
#234 = ORIENTED_EDGE ( 'NONE', *, *, #132, .F. ) ;
#235 = FACE_OUTER_BOUND ( 'NONE', #46, .T. ) ;
#236 = DIRECTION ( 'NONE',  ( 0.0000000000000000000, 0.0000000000000000000, 1.000000000000000000 ) ) ;
#237 = PRODUCT_DEFINITION_CONTEXT ( 'detailed design', #282, 'design' ) ;
#238 = ORIENTED_EDGE ( 'NONE', *, *, #163, .F. ) ;
#239 = PRODUCT_DEFINITION_SHAPE ( 'NONE', 'NONE',  #200 ) ;
#240 = EDGE_CURVE ( 'NONE', #122, #181, #306, .T. ) ;
#241 = LINE ( 'NONE', #126, #56 ) ;
#242 = CARTESIAN_POINT ( 'NONE',  ( 79.54907587170501400, 0.0000000000000000000, -2.106392494533447300E-013 ) ) ;
#243 = AXIS2_PLACEMENT_3D ( 'NONE', #214, #228, #304 ) ;
#244 = FILL_AREA_STYLE_COLOUR ( '', #270 ) ;
#245 = DIRECTION ( 'NONE',  ( -1.000000000000000000, -0.0000000000000000000, -0.0000000000000000000 ) ) ;
#246 = PRESENTATION_LAYER_ASSIGNMENT (  '', '', ( #146 ) ) ;
#247 = DIRECTION ( 'NONE',  ( -1.000000000000000000, -0.0000000000000000000, -0.0000000000000000000 ) ) ;
#248 = STYLED_ITEM ( 'NONE', ( #63 ), #333 ) ;
#249 = ORIENTED_EDGE ( 'NONE', *, *, #159, .F. ) ;
#250 = UNCERTAINTY_MEASURE_WITH_UNIT (LENGTH_MEASURE( 1.000000000000000100E-005 ), #339, 'distance_accuracy_value', 'NONE');
#251 = CARTESIAN_POINT ( 'NONE',  ( -321.3509241282956700, 0.0000000000000000000, -5.558005932232330100E-015 ) ) ;
#252 = AXIS2_PLACEMENT_3D ( 'NONE', #263, #298, #48 ) ;
#253 = LINE ( 'NONE', #334, #58 ) ;
#254 = ADVANCED_FACE ( 'NONE', ( #312 ), #183, .F. ) ;
#255 = SPHERICAL_SURFACE ( 'NONE', #79, 494.3000000000000700 ) ;
#256 = STYLED_ITEM ( 'NONE', ( #68 ), #199 ) ;
#257 = CARTESIAN_POINT ( 'NONE',  ( 0.0000000000000000000, 0.0000000000000000000, 0.0000000000000000000 ) ) ;
#258 = CARTESIAN_POINT ( 'NONE',  ( -321.3509241282956700, 0.0000000000000000000, -5.558005932232330100E-015 ) ) ;
#259 = DIRECTION ( 'NONE',  ( -0.0000000000000000000, 1.000000000000000000, 1.224646799147353200E-016 ) ) ;
#260 = COLOUR_RGB ( '',1.000000000000000000, 1.000000000000000000, 1.000000000000000000 ) ;
#261 = AXIS2_PLACEMENT_3D ( 'NONE', #274, #45, #31 ) ;
#262 =( NAMED_UNIT ( * ) PLANE_ANGLE_UNIT ( ) SI_UNIT ( $, .RADIAN. ) );
#263 = CARTESIAN_POINT ( 'NONE',  ( -151.1284751181453600, 0.0000000000000000000, 0.0000000000000000000 ) ) ;
#264 = VERTEX_POINT ( 'NONE', #10 ) ;
#265 = ORIENTED_EDGE ( 'NONE', *, *, #326, .T. ) ;
#266 = EDGE_CURVE ( 'NONE', #128, #151, #269, .T. ) ;
#267 = CARTESIAN_POINT ( 'NONE',  ( 73.20210687462844100, 3.110602869834350200E-015, -25.40000000000060300 ) ) ;
#268 = AXIS2_PLACEMENT_3D ( 'NONE', #276, #229, #321 ) ;
#269 = CIRCLE ( 'NONE', #186, 398.1000000000000800 ) ;
#270 = COLOUR_RGB ( '',1.000000000000000000, 1.000000000000000000, 1.000000000000000000 ) ;
#271 = EDGE_CURVE ( 'NONE', #285, #151, #166, .T. ) ;
#272 = UNCERTAINTY_MEASURE_WITH_UNIT (LENGTH_MEASURE( 1.000000000000000100E-005 ), #155, 'distance_accuracy_value', 'NONE');
#273 = CIRCLE ( 'NONE', #55, 398.1000000000000800 ) ;
#274 = CARTESIAN_POINT ( 'NONE',  ( -321.3509241282956700, 0.0000000000000000000, -5.558005932232330100E-015 ) ) ;
#275 = SHAPE_DEFINITION_REPRESENTATION ( #239, #333 ) ;
#276 = CARTESIAN_POINT ( 'NONE',  ( -402.0212655728769300, 0.0000000000000000000, 0.0000000000000000000 ) ) ;
#277 = ADVANCED_FACE ( 'NONE', ( #302 ), #172, .T. ) ;
#278 = EDGE_CURVE ( 'NONE', #122, #104, #327, .T. ) ;
#279 = AXIS2_PLACEMENT_3D ( 'NONE', #118, #134, #317 ) ;
#280 = CARTESIAN_POINT ( 'NONE',  ( 79.64285040566743100, 3.110602869834340800E-015, -25.40000000000046400 ) ) ;
#281 =( NAMED_UNIT ( * ) PLANE_ANGLE_UNIT ( ) SI_UNIT ( $, .RADIAN. ) );
#282 = APPLICATION_CONTEXT ( 'automotive_design' ) ;
#283 = SURFACE_SIDE_STYLE ('',( #108 ) ) ;
#284 = VERTEX_POINT ( 'NONE', #267 ) ;
#285 = VERTEX_POINT ( 'NONE', #182 ) ;
#286 = AXIS2_PLACEMENT_3D ( 'NONE', #257, #318, #212 ) ;
#287 = MANIFOLD_SOLID_BREP ( 'Ðý×ª1', #44 ) ;
#288 = EDGE_CURVE ( 'NONE', #264, #335, #41, .T. ) ;
#289 = DIRECTION ( 'NONE',  ( 0.0000000000000000000, 0.0000000000000000000, 1.000000000000000000 ) ) ;
#290 = CARTESIAN_POINT ( 'NONE',  ( 3519.549075871704600, 0.0000000000000000000, 0.0000000000000000000 ) ) ;
#291 = DIRECTION ( 'NONE',  ( 0.0000000000000000000, -1.000000000000000000, -1.224646799147353200E-016 ) ) ;
#292 = DIRECTION ( 'NONE',  ( 0.0000000000000000000, 0.0000000000000000000, 1.000000000000000000 ) ) ;
#293 = ORIENTED_EDGE ( 'NONE', *, *, #278, .F. ) ;
#294 = CLOSED_SHELL ( 'NONE', ( #227, #142, #254, #337, #277, #196 ) ) ;
#295 = AXIS2_PLACEMENT_3D ( 'NONE', #19, #300, #190 ) ;
#296 = ORIENTED_EDGE ( 'NONE', *, *, #167, .F. ) ;
#297 = EDGE_LOOP ( 'NONE', ( #249, #233, #84 ) ) ;
#298 = DIRECTION ( 'NONE',  ( -1.000000000000000000, -0.0000000000000000000, -0.0000000000000000000 ) ) ;
#299 = EDGE_CURVE ( 'NONE', #151, #285, #144, .T. ) ;
#300 = DIRECTION ( 'NONE',  ( -0.0000000000000000000, -1.000000000000000000, -0.0000000000000000000 ) ) ;
#301 = EDGE_CURVE ( 'NONE', #69, #32, #103, .T. ) ;
#302 = FACE_OUTER_BOUND ( 'NONE', #66, .T. ) ;
#303 = SURFACE_STYLE_USAGE ( .BOTH. , #88 ) ;
#304 = DIRECTION ( 'NONE',  ( 0.0000000000000000000, 0.0000000000000000000, 1.000000000000000000 ) ) ;
#305 = ADVANCED_FACE ( 'NONE', ( #95 ), #255, .T. ) ;
#306 = CIRCLE ( 'NONE', #331, 25.40000000000046400 ) ;
#307 = PRODUCT_RELATED_PRODUCT_CATEGORY ( 'part', '', ( #175 ) ) ;
#308 = DIRECTION ( 'NONE',  ( -1.000000000000000000, -0.0000000000000000000, -0.0000000000000000000 ) ) ;
#309 = EDGE_CURVE ( 'NONE', #32, #69, #209, .T. ) ;
#310 = ORIENTED_EDGE ( 'NONE', *, *, #271, .T. ) ;
#311 = CARTESIAN_POINT ( 'NONE',  ( 73.20210687462841300, 0.0000000000000000000, 0.0000000000000000000 ) ) ;
#312 = FACE_OUTER_BOUND ( 'NONE', #297, .T. ) ;
#313 = SURFACE_STYLE_USAGE ( .BOTH. , #315 ) ;
#314 = SPHERICAL_SURFACE ( 'NONE', #29, 494.3000000000000700 ) ;
#315 = SURFACE_SIDE_STYLE ('',( #184 ) ) ;
#316 = DIRECTION ( 'NONE',  ( -1.000000000000000000, -0.0000000000000000000, -0.0000000000000000000 ) ) ;
#317 = DIRECTION ( 'NONE',  ( 0.0000000000000000000, 0.0000000000000000000, -1.000000000000000000 ) ) ;
#318 = DIRECTION ( 'NONE',  ( 0.0000000000000000000, 0.0000000000000000000, 1.000000000000000000 ) ) ;
#319 = DIRECTION ( 'NONE',  ( -1.000000000000000000, -0.0000000000000000000, -0.0000000000000000000 ) ) ;
#320 =( GEOMETRIC_REPRESENTATION_CONTEXT ( 3 ) GLOBAL_UNCERTAINTY_ASSIGNED_CONTEXT ( ( #250 ) ) GLOBAL_UNIT_ASSIGNED_CONTEXT ( ( #339, #281, #218 ) ) REPRESENTATION_CONTEXT ( 'NONE', 'WORKASPACE' ) );
#321 = DIRECTION ( 'NONE',  ( 0.0000000000000000000, 0.0000000000000000000, 1.000000000000000000 ) ) ;
#322 = VERTEX_POINT ( 'NONE', #107 ) ;
#323 = FILL_AREA_STYLE ('',( #12 ) ) ;
#324 = MECHANICAL_DESIGN_GEOMETRIC_PRESENTATION_REPRESENTATION (  '', ( #256 ), #320 ) ;
#325 = ORIENTED_EDGE ( 'NONE', *, *, #101, .T. ) ;
#326 = EDGE_CURVE ( 'NONE', #284, #335, #89, .T. ) ;
#327 = CIRCLE ( 'NONE', #6, 3439.999999999999500 ) ;
#328 = DIRECTION ( 'NONE',  ( 0.0000000000000000000, 1.000000000000000000, -0.0000000000000000000 ) ) ;
#329 =( LENGTH_UNIT ( ) NAMED_UNIT ( * ) SI_UNIT ( .MILLI., .METRE. ) );
#330 = ORIENTED_EDGE ( 'NONE', *, *, #326, .F. ) ;
#331 = AXIS2_PLACEMENT_3D ( 'NONE', #133, #23, #22 ) ;
#332 = FACE_OUTER_BOUND ( 'NONE', #1, .T. ) ;
#333 = ADVANCED_BREP_SHAPE_REPRESENTATION ( '145143', ( #287, #199, #286 ), #15 ) ;
#334 = CARTESIAN_POINT ( 'NONE',  ( -402.0212655728769300, 3.110602869834276100E-015, -25.39999999999999100 ) ) ;
#335 = VERTEX_POINT ( 'NONE', #217 ) ;
#336 =( NAMED_UNIT ( * ) SI_UNIT ( $, .STERADIAN. ) SOLID_ANGLE_UNIT ( ) );
#337 = ADVANCED_FACE ( 'NONE', ( #235 ), #340, .F. ) ;
#338 = SPHERICAL_SURFACE ( 'NONE', #279, 3439.999999999999500 ) ;
#339 =( LENGTH_UNIT ( ) NAMED_UNIT ( * ) SI_UNIT ( .MILLI., .METRE. ) );
#340 = SPHERICAL_SURFACE ( 'NONE', #70, 398.1000000000000800 ) ;
#341 = DIRECTION ( 'NONE',  ( -0.0000000000000000000, 1.000000000000000000, 1.224646799147353200E-016 ) ) ;
#342 = ADVANCED_FACE ( 'NONE', ( #52 ), #136, .T. ) ;
#343 = CIRCLE ( 'NONE', #178, 3439.999999999999500 ) ;
#344 = DIRECTION ( 'NONE',  ( -1.000000000000000000, -0.0000000000000000000, -0.0000000000000000000 ) ) ;
#345 = ORIENTED_EDGE ( 'NONE', *, *, #288, .T. ) ;
#346 = ADVANCED_FACE ( 'NONE', ( #113 ), #314, .T. ) ;
#347 = DIRECTION ( 'NONE',  ( 0.0000000000000000000, 0.0000000000000000000, -1.000000000000000000 ) ) ;
ENDSEC;
END-ISO-10303-21;
