ISO-10303-21;
HEADER;
FILE_DESCRIPTION (( 'STEP AP214' ),
    '1' );
FILE_NAME ('145137.STEP',
    '2019-06-05T02:25:54',
    ( 'user' ),
    ( 'Î¢ÈíÖÐ¹ú' ),
    'SwSTEP 2.0',
    'SolidWorks 2016',
    '' );
FILE_SCHEMA (( 'AUTOMOTIVE_DESIGN' ));
ENDSEC;

DATA;
#1 = DIRECTION ( 'NONE',  ( 0.0000000000000000000, 0.0000000000000000000, 1.000000000000000000 ) ) ;
#2 = SURFACE_SIDE_STYLE ('',( #45 ) ) ;
#3 = ORIENTED_EDGE ( 'NONE', *, *, #132, .T. ) ;
#4 = ORIENTED_EDGE ( 'NONE', *, *, #63, .F. ) ;
#5 = DIRECTION ( 'NONE',  ( 0.0000000000000000000, 0.0000000000000000000, -1.000000000000000000 ) ) ;
#6 = DIRECTION ( 'NONE',  ( 0.0000000000000000000, 0.0000000000000000000, 1.000000000000000000 ) ) ;
#7 = CARTESIAN_POINT ( 'NONE',  ( 571.3540525675551900, 0.0000000000000000000, 0.0000000000000000000 ) ) ;
#8 = DIRECTION ( 'NONE',  ( -0.0000000000000000000, 1.000000000000000000, 1.224646799147353200E-016 ) ) ;
#9 = FACE_OUTER_BOUND ( 'NONE', #22, .T. ) ;
#10 = DIRECTION ( 'NONE',  ( 0.0000000000000000000, 0.0000000000000000000, 1.000000000000000000 ) ) ;
#11 = EDGE_LOOP ( 'NONE', ( #3, #337, #59, #68 ) ) ;
#12 = DIRECTION ( 'NONE',  ( -1.000000000000000000, -0.0000000000000000000, -0.0000000000000000000 ) ) ;
#13 = DIRECTION ( 'NONE',  ( 0.0000000000000000000, 1.000000000000000000, 0.0000000000000000000 ) ) ;
#14 = ADVANCED_FACE ( 'NONE', ( #98 ), #127, .T. ) ;
#15 = AXIS2_PLACEMENT_3D ( 'NONE', #222, #58, #252 ) ;
#16 = CARTESIAN_POINT ( 'NONE',  ( 124.5233095260452400, 3.110602869834276100E-015, -25.39999999999999100 ) ) ;
#17 = ORIENTED_EDGE ( 'NONE', *, *, #332, .T. ) ;
#18 = AXIS2_PLACEMENT_3D ( 'NONE', #279, #8, #255 ) ;
#19 = SURFACE_SIDE_STYLE ('',( #223 ) ) ;
#20 = LINE ( 'NONE', #139, #166 ) ;
#21 = VERTEX_POINT ( 'NONE', #347 ) ;
#22 = EDGE_LOOP ( 'NONE', ( #102, #282, #194, #281 ) ) ;
#23 = EDGE_CURVE ( 'NONE', #81, #208, #120, .T. ) ;
#24 = VECTOR ( 'NONE', #341, 1000.000000000000000 ) ;
#25 = ORIENTED_EDGE ( 'NONE', *, *, #263, .F. ) ;
#26 = CARTESIAN_POINT ( 'NONE',  ( -0.5519199926577972300, 0.0000000000000000000, 0.0000000000000000000 ) ) ;
#27 = CIRCLE ( 'NONE', #344, 25.39999999999999100 ) ;
#28 = CARTESIAN_POINT ( 'NONE',  ( 457.7805592743230200, 0.0000000000000000000, -6.453996819439198100E-015 ) ) ;
#29 = DIRECTION ( 'NONE',  ( 0.0000000000000000000, 0.0000000000000000000, 1.000000000000000000 ) ) ;
#30 = EDGE_LOOP ( 'NONE', ( #101, #165, #66 ) ) ;
#31 = FILL_AREA_STYLE_COLOUR ( '', #271 ) ;
#32 = ORIENTED_EDGE ( 'NONE', *, *, #175, .T. ) ;
#33 = CIRCLE ( 'NONE', #190, 134.0000000000001100 ) ;
#34 = DIRECTION ( 'NONE',  ( -1.000000000000000000, -0.0000000000000000000, -0.0000000000000000000 ) ) ;
#35 = DIRECTION ( 'NONE',  ( 0.0000000000000000000, 0.0000000000000000000, 1.000000000000000000 ) ) ;
#36 = CARTESIAN_POINT ( 'NONE',  ( 561.2098938507566600, 0.0000000000000000000, 0.0000000000000000000 ) ) ;
#37 = AXIS2_PLACEMENT_3D ( 'NONE', #137, #307, #35 ) ;
#38 = DIRECTION ( 'NONE',  ( 0.0000000000000000000, -1.000000000000000000, 0.0000000000000000000 ) ) ;
#39 = PRESENTATION_LAYER_ASSIGNMENT (  '', '', ( #56 ) ) ;
#40 = CARTESIAN_POINT ( 'NONE',  ( 563.9854555832974900, 0.0000000000000000000, 25.39999999999999900 ) ) ;
#41 = ORIENTED_EDGE ( 'NONE', *, *, #43, .T. ) ;
#42 = SURFACE_STYLE_USAGE ( .BOTH. , #170 ) ;
#43 = EDGE_CURVE ( 'NONE', #340, #208, #136, .T. ) ;
#44 = CARTESIAN_POINT ( 'NONE',  ( 563.9854555832974900, 3.110602869834276900E-015, -25.40000000000000600 ) ) ;
#45 = SURFACE_STYLE_FILL_AREA ( #85 ) ;
#46 = ADVANCED_FACE ( 'NONE', ( #133 ), #193, .T. ) ;
#47 = EDGE_LOOP ( 'NONE', ( #122, #51, #158 ) ) ;
#48 = CARTESIAN_POINT ( 'NONE',  ( 124.5233095260452400, 0.0000000000000000000, 25.39999999999999100 ) ) ;
#49 = COLOUR_RGB ( '',1.000000000000000000, 1.000000000000000000, 1.000000000000000000 ) ;
#50 = DIRECTION ( 'NONE',  ( 0.0000000000000000000, 0.0000000000000000000, 1.000000000000000000 ) ) ;
#51 = ORIENTED_EDGE ( 'NONE', *, *, #94, .T. ) ;
#52 = EDGE_LOOP ( 'NONE', ( #60, #297, #105 ) ) ;
#53 = AXIS2_PLACEMENT_3D ( 'NONE', #334, #177, #142 ) ;
#54 = DIRECTION ( 'NONE',  ( 0.0000000000000000000, -1.000000000000000000, 0.0000000000000000000 ) ) ;
#55 =( NAMED_UNIT ( * ) SI_UNIT ( $, .STERADIAN. ) SOLID_ANGLE_UNIT ( ) );
#56 = STYLED_ITEM ( 'NONE', ( #209 ), #278 ) ;
#57 = CARTESIAN_POINT ( 'NONE',  ( 0.0000000000000000000, 0.0000000000000000000, 0.0000000000000000000 ) ) ;
#58 = DIRECTION ( 'NONE',  ( -1.000000000000000000, -0.0000000000000000000, -0.0000000000000000000 ) ) ;
#59 = ORIENTED_EDGE ( 'NONE', *, *, #214, .F. ) ;
#60 = ORIENTED_EDGE ( 'NONE', *, *, #284, .F. ) ;
#61 = DIRECTION ( 'NONE',  ( 0.0000000000000000000, 0.0000000000000000000, 1.000000000000000000 ) ) ;
#62 = DIRECTION ( 'NONE',  ( -1.000000000000000000, -0.0000000000000000000, -0.0000000000000000000 ) ) ;
#63 = EDGE_CURVE ( 'NONE', #340, #72, #152, .T. ) ;
#64 = EDGE_LOOP ( 'NONE', ( #113, #314, #89 ) ) ;
#65 = DIRECTION ( 'NONE',  ( -1.000000000000000000, -0.0000000000000000000, -0.0000000000000000000 ) ) ;
#66 = ORIENTED_EDGE ( 'NONE', *, *, #175, .F. ) ;
#67 = DIRECTION ( 'NONE',  ( -1.000000000000000000, -0.0000000000000000000, -0.0000000000000000000 ) ) ;
#68 = ORIENTED_EDGE ( 'NONE', *, *, #343, .F. ) ;
#69 = DIRECTION ( 'NONE',  ( 0.0000000000000000000, 0.0000000000000000000, 1.000000000000000000 ) ) ;
#70 = ORIENTED_EDGE ( 'NONE', *, *, #284, .T. ) ;
#71 = ADVANCED_FACE ( 'NONE', ( #148 ), #178, .F. ) ;
#72 = VERTEX_POINT ( 'NONE', #346 ) ;
#73 = AXIS2_PLACEMENT_3D ( 'NONE', #212, #12, #289 ) ;
#74 = AXIS2_PLACEMENT_3D ( 'NONE', #135, #199, #103 ) ;
#75 = PRESENTATION_STYLE_ASSIGNMENT (( #231 ) ) ;
#76 = FACE_OUTER_BOUND ( 'NONE', #153, .T. ) ;
#77 = UNCERTAINTY_MEASURE_WITH_UNIT (LENGTH_MEASURE( 1.000000000000000100E-005 ), #115, 'distance_accuracy_value', 'NONE');
#78 = CLOSED_SHELL ( 'NONE', ( #79, #46, #184, #121, #262, #93 ) ) ;
#79 = ADVANCED_FACE ( 'NONE', ( #201 ), #213, .T. ) ;
#80 = EDGE_CURVE ( 'NONE', #179, #134, #171, .T. ) ;
#81 = VERTEX_POINT ( 'NONE', #44 ) ;
#82 = DIRECTION ( 'NONE',  ( -0.0000000000000000000, 1.000000000000000000, 1.224646799147353200E-016 ) ) ;
#83 = ORIENTED_EDGE ( 'NONE', *, *, #110, .T. ) ;
#84 = DIRECTION ( 'NONE',  ( 0.0000000000000000000, 0.0000000000000000000, 1.000000000000000000 ) ) ;
#85 = FILL_AREA_STYLE ('',( #31 ) ) ;
#86 = DIRECTION ( 'NONE',  ( -1.000000000000000000, -0.0000000000000000000, -0.0000000000000000000 ) ) ;
#87 = AXIS2_PLACEMENT_3D ( 'NONE', #283, #65, #277 ) ;
#88 = DIRECTION ( 'NONE',  ( 0.0000000000000000000, 0.0000000000000000000, 1.000000000000000000 ) ) ;
#89 = ORIENTED_EDGE ( 'NONE', *, *, #110, .F. ) ;
#90 = MECHANICAL_DESIGN_GEOMETRIC_PRESENTATION_REPRESENTATION (  '', ( #56 ), #104 ) ;
#91 = CARTESIAN_POINT ( 'NONE',  ( 561.2098938507566600, 0.0000000000000000000, 25.39999999999997700 ) ) ;
#92 =( NAMED_UNIT ( * ) SI_UNIT ( $, .STERADIAN. ) SOLID_ANGLE_UNIT ( ) );
#93 = ADVANCED_FACE ( 'NONE', ( #243 ), #191, .T. ) ;
#94 = EDGE_CURVE ( 'NONE', #21, #81, #258, .T. ) ;
#95 =( NAMED_UNIT ( * ) PLANE_ANGLE_UNIT ( ) SI_UNIT ( $, .RADIAN. ) );
#96 = ADVANCED_FACE ( 'NONE', ( #143 ), #206, .T. ) ;
#97 = PRODUCT_DEFINITION_CONTEXT ( 'detailed design', #218, 'design' ) ;
#98 = FACE_OUTER_BOUND ( 'NONE', #64, .T. ) ;
#99 = SHAPE_DEFINITION_REPRESENTATION ( #200, #268 ) ;
#100 = AXIS2_PLACEMENT_3D ( 'NONE', #174, #168, #339 ) ;
#101 = ORIENTED_EDGE ( 'NONE', *, *, #80, .F. ) ;
#102 = ORIENTED_EDGE ( 'NONE', *, *, #63, .T. ) ;
#103 = DIRECTION ( 'NONE',  ( 0.0000000000000000000, 0.0000000000000000000, 1.000000000000000000 ) ) ;
#104 =( GEOMETRIC_REPRESENTATION_CONTEXT ( 3 ) GLOBAL_UNCERTAINTY_ASSIGNED_CONTEXT ( ( #272 ) ) GLOBAL_UNIT_ASSIGNED_CONTEXT ( ( #116, #95, #92 ) ) REPRESENTATION_CONTEXT ( 'NONE', 'WORKASPACE' ) );
#105 = ORIENTED_EDGE ( 'NONE', *, *, #304, .T. ) ;
#106 = DIRECTION ( 'NONE',  ( 0.0000000000000000000, 1.000000000000000000, 0.0000000000000000000 ) ) ;
#107 = ORIENTED_EDGE ( 'NONE', *, *, #343, .T. ) ;
#108 = CARTESIAN_POINT ( 'NONE',  ( 457.7805592743230200, 0.0000000000000000000, -6.453996819439198100E-015 ) ) ;
#109 = CARTESIAN_POINT ( 'NONE',  ( 561.2098938507566600, 0.0000000000000000000, 0.0000000000000000000 ) ) ;
#110 = EDGE_CURVE ( 'NONE', #72, #340, #305, .T. ) ;
#111 = CARTESIAN_POINT ( 'NONE',  ( 566.9805592743231300, 0.0000000000000000000, 2.325747039053553000E-016 ) ) ;
#112 = EDGE_LOOP ( 'NONE', ( #240, #70, #318 ) ) ;
#113 = ORIENTED_EDGE ( 'NONE', *, *, #245, .F. ) ;
#114 = DIRECTION ( 'NONE',  ( 0.0000000000000000000, 1.000000000000000000, 0.0000000000000000000 ) ) ;
#115 =( LENGTH_UNIT ( ) NAMED_UNIT ( * ) SI_UNIT ( .MILLI., .METRE. ) );
#116 =( LENGTH_UNIT ( ) NAMED_UNIT ( * ) SI_UNIT ( .MILLI., .METRE. ) );
#117 = EDGE_LOOP ( 'NONE', ( #25, #83, #41, #311 ) ) ;
#118 = DIRECTION ( 'NONE',  ( -1.000000000000000000, -0.0000000000000000000, -0.0000000000000000000 ) ) ;
#119 = CARTESIAN_POINT ( 'NONE',  ( 457.7805592743230200, 0.0000000000000000000, -6.453996819439198100E-015 ) ) ;
#120 = CIRCLE ( 'NONE', #15, 25.39999999999999900 ) ;
#121 = ADVANCED_FACE ( 'NONE', ( #253 ), #267, .T. ) ;
#122 = ORIENTED_EDGE ( 'NONE', *, *, #192, .F. ) ;
#123 = VERTEX_POINT ( 'NONE', #286 ) ;
#124 = CIRCLE ( 'NONE', #126, 134.0000000000001100 ) ;
#125 = AXIS2_PLACEMENT_3D ( 'NONE', #28, #106, #331 ) ;
#126 = AXIS2_PLACEMENT_3D ( 'NONE', #181, #235, #236 ) ;
#127 = SPHERICAL_SURFACE ( 'NONE', #37, 515.2000000000000500 ) ;
#128 = ORIENTED_EDGE ( 'NONE', *, *, #245, .T. ) ;
#129 = FILL_AREA_STYLE ('',( #249 ) ) ;
#130 = CARTESIAN_POINT ( 'NONE',  ( 571.3540525675551900, 0.0000000000000000000, 25.39999999999997700 ) ) ;
#131 = PRODUCT_CONTEXT ( 'NONE', #241, 'mechanical' ) ;
#132 = EDGE_CURVE ( 'NONE', #270, #134, #290, .T. ) ;
#133 = FACE_OUTER_BOUND ( 'NONE', #11, .T. ) ;
#134 = VERTEX_POINT ( 'NONE', #328 ) ;
#135 = CARTESIAN_POINT ( 'NONE',  ( 124.5233095260452400, 0.0000000000000000000, 0.0000000000000000000 ) ) ;
#136 = LINE ( 'NONE', #256, #160 ) ;
#137 = CARTESIAN_POINT ( 'NONE',  ( 56.78055927432312400, 0.0000000000000000000, 0.0000000000000000000 ) ) ;
#138 = CIRCLE ( 'NONE', #149, 515.2000000000000500 ) ;
#139 = CARTESIAN_POINT ( 'NONE',  ( -0.5519199926577972300, 3.110602869834276100E-015, -25.39999999999998800 ) ) ;
#140 = APPLICATION_PROTOCOL_DEFINITION ( 'draft international standard', 'automotive_design', 1998, #241 ) ;
#141 = UNCERTAINTY_MEASURE_WITH_UNIT (LENGTH_MEASURE( 1.000000000000000100E-005 ), #320, 'distance_accuracy_value', 'NONE');
#142 = DIRECTION ( 'NONE',  ( 0.0000000000000000000, -1.224646799147353200E-016, 1.000000000000000000 ) ) ;
#143 = FACE_OUTER_BOUND ( 'NONE', #244, .T. ) ;
#144 = DIRECTION ( 'NONE',  ( 0.0000000000000000000, 0.0000000000000000000, 1.000000000000000000 ) ) ;
#145 = ORIENTED_EDGE ( 'NONE', *, *, #317, .F. ) ;
#146 = AXIS2_PLACEMENT_3D ( 'NONE', #251, #82, #275 ) ;
#147 = DIRECTION ( 'NONE',  ( -1.000000000000000000, -0.0000000000000000000, -0.0000000000000000000 ) ) ;
#148 = FACE_OUTER_BOUND ( 'NONE', #47, .T. ) ;
#149 = AXIS2_PLACEMENT_3D ( 'NONE', #301, #54, #269 ) ;
#150 = CIRCLE ( 'NONE', #335, 25.39999999999999100 ) ;
#151 =( NAMED_UNIT ( * ) PLANE_ANGLE_UNIT ( ) SI_UNIT ( $, .RADIAN. ) );
#152 = CIRCLE ( 'NONE', #73, 25.39999999999997700 ) ;
#153 = EDGE_LOOP ( 'NONE', ( #145, #32, #107, #296 ) ) ;
#154 = EDGE_CURVE ( 'NONE', #179, #270, #226, .T. ) ;
#155 = FILL_AREA_STYLE_COLOUR ( '', #274 ) ;
#156 = ADVANCED_FACE ( 'NONE', ( #9 ), #321, .T. ) ;
#157 = AXIS2_PLACEMENT_3D ( 'NONE', #230, #291, #6 ) ;
#158 = ORIENTED_EDGE ( 'NONE', *, *, #23, .T. ) ;
#159 =( NAMED_UNIT ( * ) PLANE_ANGLE_UNIT ( ) SI_UNIT ( $, .RADIAN. ) );
#160 = VECTOR ( 'NONE', #62, 1000.000000000000000 ) ;
#161 = VERTEX_POINT ( 'NONE', #237 ) ;
#162 = DIRECTION ( 'NONE',  ( 0.0000000000000000000, 0.0000000000000000000, 1.000000000000000000 ) ) ;
#163 = AXIS2_PLACEMENT_3D ( 'NONE', #250, #114, #84 ) ;
#164 =( NAMED_UNIT ( * ) PLANE_ANGLE_UNIT ( ) SI_UNIT ( $, .RADIAN. ) );
#165 = ORIENTED_EDGE ( 'NONE', *, *, #154, .T. ) ;
#166 = VECTOR ( 'NONE', #86, 1000.000000000000000 ) ;
#167 = DIRECTION ( 'NONE',  ( -1.000000000000000000, -0.0000000000000000000, -0.0000000000000000000 ) ) ;
#168 = DIRECTION ( 'NONE',  ( 0.0000000000000000000, 1.000000000000000000, 0.0000000000000000000 ) ) ;
#169 = AXIS2_PLACEMENT_3D ( 'NONE', #108, #259, #1 ) ;
#170 = SURFACE_SIDE_STYLE ('',( #330 ) ) ;
#171 = CIRCLE ( 'NONE', #53, 109.2000000000000700 ) ;
#172 = DIRECTION ( 'NONE',  ( -1.000000000000000000, -0.0000000000000000000, -0.0000000000000000000 ) ) ;
#173 = LINE ( 'NONE', #48, #198 ) ;
#174 = CARTESIAN_POINT ( 'NONE',  ( 457.7805592743230200, 0.0000000000000000000, -6.453996819439198100E-015 ) ) ;
#175 = EDGE_CURVE ( 'NONE', #134, #270, #308, .T. ) ;
#176 = AXIS2_PLACEMENT_3D ( 'NONE', #309, #215, #257 ) ;
#177 = DIRECTION ( 'NONE',  ( -0.0000000000000000000, 1.000000000000000000, 1.224646799147353200E-016 ) ) ;
#178 = SPHERICAL_SURFACE ( 'NONE', #100, 109.2000000000000700 ) ;
#179 = VERTEX_POINT ( 'NONE', #111 ) ;
#180 = PRODUCT ( '145137', '145137', '', ( #131 ) ) ;
#181 = CARTESIAN_POINT ( 'NONE',  ( 692.7805592743230800, 0.0000000000000000000, -7.833322541022723000E-015 ) ) ;
#182 = LINE ( 'NONE', #16, #24 ) ;
#183 = MANIFOLD_SOLID_BREP ( 'Ðý×ª1', #78 ) ;
#184 = ADVANCED_FACE ( 'NONE', ( #280 ), #313, .T. ) ;
#185 = DIRECTION ( 'NONE',  ( -1.000000000000000000, -0.0000000000000000000, -0.0000000000000000000 ) ) ;
#186 = EDGE_LOOP ( 'NONE', ( #238, #234, #17 ) ) ;
#187 = EDGE_LOOP ( 'NONE', ( #336, #333, #293 ) ) ;
#188 = AXIS2_PLACEMENT_3D ( 'NONE', #7, #118, #69 ) ;
#189 = FACE_OUTER_BOUND ( 'NONE', #186, .T. ) ;
#190 = AXIS2_PLACEMENT_3D ( 'NONE', #247, #303, #5 ) ;
#191 = SPHERICAL_SURFACE ( 'NONE', #163, 109.2000000000000700 ) ;
#192 = EDGE_CURVE ( 'NONE', #21, #208, #260, .T. ) ;
#193 = CYLINDRICAL_SURFACE ( 'NONE', #87, 25.39999999999999100 ) ;
#194 = ORIENTED_EDGE ( 'NONE', *, *, #332, .F. ) ;
#195 = STYLED_ITEM ( 'NONE', ( #325 ), #183 ) ;
#196 =( LENGTH_UNIT ( ) NAMED_UNIT ( * ) SI_UNIT ( .MILLI., .METRE. ) );
#197 = CARTESIAN_POINT ( 'NONE',  ( 56.78055927432312400, 0.0000000000000000000, 0.0000000000000000000 ) ) ;
#198 = VECTOR ( 'NONE', #167, 1000.000000000000000 ) ;
#199 = DIRECTION ( 'NONE',  ( -1.000000000000000000, -0.0000000000000000000, -0.0000000000000000000 ) ) ;
#200 = PRODUCT_DEFINITION_SHAPE ( 'NONE', 'NONE',  #246 ) ;
#201 = FACE_OUTER_BOUND ( 'NONE', #187, .T. ) ;
#202 = DIRECTION ( 'NONE',  ( 0.0000000000000000000, 1.000000000000000000, 0.0000000000000000000 ) ) ;
#203 = AXIS2_PLACEMENT_3D ( 'NONE', #197, #202, #324 ) ;
#204 = CARTESIAN_POINT ( 'NONE',  ( 571.9805592743231300, 0.0000000000000000000, 3.154690154603582200E-014 ) ) ;
#205 = FILL_AREA_STYLE ('',( #155 ) ) ;
#206 = SPHERICAL_SURFACE ( 'NONE', #203, 515.2000000000000500 ) ;
#207 =( GEOMETRIC_REPRESENTATION_CONTEXT ( 3 ) GLOBAL_UNCERTAINTY_ASSIGNED_CONTEXT ( ( #211 ) ) GLOBAL_UNIT_ASSIGNED_CONTEXT ( ( #196, #164, #55 ) ) REPRESENTATION_CONTEXT ( 'NONE', 'WORKASPACE' ) );
#208 = VERTEX_POINT ( 'NONE', #40 ) ;
#209 = PRESENTATION_STYLE_ASSIGNMENT (( #329 ) ) ;
#210 = CARTESIAN_POINT ( 'NONE',  ( 563.9854555832974900, 0.0000000000000000000, 0.0000000000000000000 ) ) ;
#211 = UNCERTAINTY_MEASURE_WITH_UNIT (LENGTH_MEASURE( 1.000000000000000100E-005 ), #196, 'distance_accuracy_value', 'NONE');
#212 = CARTESIAN_POINT ( 'NONE',  ( 571.3540525675551900, 0.0000000000000000000, 0.0000000000000000000 ) ) ;
#213 = SPHERICAL_SURFACE ( 'NONE', #125, 109.2000000000000700 ) ;
#214 = EDGE_CURVE ( 'NONE', #264, #123, #150, .T. ) ;
#215 = DIRECTION ( 'NONE',  ( 0.0000000000000000000, -1.000000000000000000, 0.0000000000000000000 ) ) ;
#216 = CLOSED_SHELL ( 'NONE', ( #96, #156, #71, #295, #316, #14 ) ) ;
#217 = AXIS2_PLACEMENT_3D ( 'NONE', #323, #232, #61 ) ;
#218 = APPLICATION_CONTEXT ( 'automotive_design' ) ;
#219 = SPHERICAL_SURFACE ( 'NONE', #169, 109.2000000000000700 ) ;
#220 = AXIS2_PLACEMENT_3D ( 'NONE', #210, #147, #10 ) ;
#221 = APPLICATION_PROTOCOL_DEFINITION ( 'draft international standard', 'automotive_design', 1998, #218 ) ;
#222 = CARTESIAN_POINT ( 'NONE',  ( 563.9854555832974900, 0.0000000000000000000, 0.0000000000000000000 ) ) ;
#223 = SURFACE_STYLE_FILL_AREA ( #129 ) ;
#224 = AXIS2_PLACEMENT_3D ( 'NONE', #273, #34, #310 ) ;
#225 = DIRECTION ( 'NONE',  ( -1.000000000000000000, -0.0000000000000000000, -0.0000000000000000000 ) ) ;
#226 = CIRCLE ( 'NONE', #176, 109.2000000000000700 ) ;
#227 = CARTESIAN_POINT ( 'NONE',  ( -0.5519199926577972300, 0.0000000000000000000, 0.0000000000000000000 ) ) ;
#228 = EDGE_CURVE ( 'NONE', #123, #264, #27, .T. ) ;
#229 = AXIS2_PLACEMENT_3D ( 'NONE', #57, #162, #345 ) ;
#230 = CARTESIAN_POINT ( 'NONE',  ( 692.7805592743230800, 0.0000000000000000000, -7.833322541022723000E-015 ) ) ;
#231 = SURFACE_STYLE_USAGE ( .BOTH. , #19 ) ;
#232 = DIRECTION ( 'NONE',  ( -1.000000000000000000, -0.0000000000000000000, -0.0000000000000000000 ) ) ;
#233 = AXIS2_PLACEMENT_3D ( 'NONE', #26, #67, #88 ) ;
#234 = ORIENTED_EDGE ( 'NONE', *, *, #192, .T. ) ;
#235 = DIRECTION ( 'NONE',  ( -0.0000000000000000000, 1.000000000000000000, 1.224646799147353200E-016 ) ) ;
#236 = DIRECTION ( 'NONE',  ( 0.0000000000000000000, -1.224646799147353200E-016, 1.000000000000000000 ) ) ;
#237 = CARTESIAN_POINT ( 'NONE',  ( 558.7805592743228500, 0.0000000000000000000, 3.718110132645519000E-016 ) ) ;
#238 = ORIENTED_EDGE ( 'NONE', *, *, #94, .F. ) ;
#239 = FACE_OUTER_BOUND ( 'NONE', #117, .T. ) ;
#240 = ORIENTED_EDGE ( 'NONE', *, *, #214, .T. ) ;
#241 = APPLICATION_CONTEXT ( 'automotive_design' ) ;
#242 = AXIS2_PLACEMENT_3D ( 'NONE', #227, #172, #50 ) ;
#243 = FACE_OUTER_BOUND ( 'NONE', #30, .T. ) ;
#244 = EDGE_LOOP ( 'NONE', ( #254, #128, #4 ) ) ;
#245 = EDGE_CURVE ( 'NONE', #292, #72, #338, .T. ) ;
#246 = PRODUCT_DEFINITION ( 'Î´Öª', '', #265, #97 ) ;
#247 = CARTESIAN_POINT ( 'NONE',  ( 692.7805592743230800, 0.0000000000000000000, -7.833322541022723000E-015 ) ) ;
#248 = PRESENTATION_LAYER_ASSIGNMENT (  '', '', ( #195 ) ) ;
#249 = FILL_AREA_STYLE_COLOUR ( '', #49 ) ;
#250 = CARTESIAN_POINT ( 'NONE',  ( 457.7805592743230200, 0.0000000000000000000, -6.453996819439198100E-015 ) ) ;
#251 = CARTESIAN_POINT ( 'NONE',  ( 457.7805592743230200, 0.0000000000000000000, -6.453996819439198100E-015 ) ) ;
#252 = DIRECTION ( 'NONE',  ( 0.0000000000000000000, 0.0000000000000000000, 1.000000000000000000 ) ) ;
#253 = FACE_OUTER_BOUND ( 'NONE', #52, .T. ) ;
#254 = ORIENTED_EDGE ( 'NONE', *, *, #298, .F. ) ;
#255 = DIRECTION ( 'NONE',  ( 0.0000000000000000000, -1.224646799147353200E-016, 1.000000000000000000 ) ) ;
#256 = CARTESIAN_POINT ( 'NONE',  ( -0.5519199926577972300, 0.0000000000000000000, 25.39999999999998800 ) ) ;
#257 = DIRECTION ( 'NONE',  ( 0.0000000000000000000, 0.0000000000000000000, -1.000000000000000000 ) ) ;
#258 = CIRCLE ( 'NONE', #146, 109.2000000000000700 ) ;
#259 = DIRECTION ( 'NONE',  ( 0.0000000000000000000, 1.000000000000000000, 0.0000000000000000000 ) ) ;
#260 = CIRCLE ( 'NONE', #306, 109.2000000000000700 ) ;
#261 = DIRECTION ( 'NONE',  ( 0.0000000000000000000, 0.0000000000000000000, 1.000000000000000000 ) ) ;
#262 = ADVANCED_FACE ( 'NONE', ( #76 ), #342, .T. ) ;
#263 = EDGE_CURVE ( 'NONE', #72, #81, #20, .T. ) ;
#264 = VERTEX_POINT ( 'NONE', #91 ) ;
#265 = PRODUCT_DEFINITION_FORMATION_WITH_SPECIFIED_SOURCE ( 'ÈÎºÎ', '', #180, .NOT_KNOWN. ) ;
#266 = MECHANICAL_DESIGN_GEOMETRIC_PRESENTATION_REPRESENTATION (  '', ( #195 ), #288 ) ;
#267 = SPHERICAL_SURFACE ( 'NONE', #157, 134.0000000000001100 ) ;
#268 = ADVANCED_BREP_SHAPE_REPRESENTATION ( '145137', ( #183, #278, #229 ), #207 ) ;
#269 = DIRECTION ( 'NONE',  ( 0.0000000000000000000, 0.0000000000000000000, -1.000000000000000000 ) ) ;
#270 = VERTEX_POINT ( 'NONE', #315 ) ;
#271 = COLOUR_RGB ( '',1.000000000000000000, 1.000000000000000000, 1.000000000000000000 ) ;
#272 = UNCERTAINTY_MEASURE_WITH_UNIT (LENGTH_MEASURE( 1.000000000000000100E-005 ), #116, 'distance_accuracy_value', 'NONE');
#273 = CARTESIAN_POINT ( 'NONE',  ( 563.9854555832974900, 0.0000000000000000000, 0.0000000000000000000 ) ) ;
#274 = COLOUR_RGB ( '',1.000000000000000000, 1.000000000000000000, 1.000000000000000000 ) ;
#275 = DIRECTION ( 'NONE',  ( 0.0000000000000000000, -1.224646799147353200E-016, 1.000000000000000000 ) ) ;
#276 = STYLED_ITEM ( 'NONE', ( #75 ), #268 ) ;
#277 = DIRECTION ( 'NONE',  ( 0.0000000000000000000, 0.0000000000000000000, 1.000000000000000000 ) ) ;
#278 = MANIFOLD_SOLID_BREP ( 'Ðý×ª3', #216 ) ;
#279 = CARTESIAN_POINT ( 'NONE',  ( 56.78055927432312400, 0.0000000000000000000, 0.0000000000000000000 ) ) ;
#280 = FACE_OUTER_BOUND ( 'NONE', #112, .T. ) ;
#281 = ORIENTED_EDGE ( 'NONE', *, *, #43, .F. ) ;
#282 = ORIENTED_EDGE ( 'NONE', *, *, #263, .T. ) ;
#283 = CARTESIAN_POINT ( 'NONE',  ( 124.5233095260452400, 0.0000000000000000000, 0.0000000000000000000 ) ) ;
#284 = EDGE_CURVE ( 'NONE', #123, #161, #124, .T. ) ;
#285 = PRODUCT_RELATED_PRODUCT_CATEGORY ( 'part', '', ( #180 ) ) ;
#286 = CARTESIAN_POINT ( 'NONE',  ( 561.2098938507566600, 3.110602869834274900E-015, -25.39999999999998400 ) ) ;
#287 =( NAMED_UNIT ( * ) SI_UNIT ( $, .STERADIAN. ) SOLID_ANGLE_UNIT ( ) );
#288 =( GEOMETRIC_REPRESENTATION_CONTEXT ( 3 ) GLOBAL_UNCERTAINTY_ASSIGNED_CONTEXT ( ( #77 ) ) GLOBAL_UNIT_ASSIGNED_CONTEXT ( ( #115, #151, #287 ) ) REPRESENTATION_CONTEXT ( 'NONE', 'WORKASPACE' ) );
#289 = DIRECTION ( 'NONE',  ( 0.0000000000000000000, 0.0000000000000000000, 1.000000000000000000 ) ) ;
#290 = CIRCLE ( 'NONE', #220, 25.39999999999999100 ) ;
#291 = DIRECTION ( 'NONE',  ( 0.0000000000000000000, 1.000000000000000000, 0.0000000000000000000 ) ) ;
#292 = VERTEX_POINT ( 'NONE', #204 ) ;
#293 = ORIENTED_EDGE ( 'NONE', *, *, #132, .F. ) ;
#294 = DIRECTION ( 'NONE',  ( 0.0000000000000000000, 0.0000000000000000000, -1.000000000000000000 ) ) ;
#295 = ADVANCED_FACE ( 'NONE', ( #189 ), #219, .F. ) ;
#296 = ORIENTED_EDGE ( 'NONE', *, *, #228, .F. ) ;
#297 = ORIENTED_EDGE ( 'NONE', *, *, #228, .T. ) ;
#298 = EDGE_CURVE ( 'NONE', #292, #340, #138, .T. ) ;
#299 = PRESENTATION_LAYER_ASSIGNMENT (  '', '', ( #276 ) ) ;
#300 =( NAMED_UNIT ( * ) SI_UNIT ( $, .STERADIAN. ) SOLID_ANGLE_UNIT ( ) );
#301 = CARTESIAN_POINT ( 'NONE',  ( 56.78055927432312400, 0.0000000000000000000, 0.0000000000000000000 ) ) ;
#302 = CIRCLE ( 'NONE', #224, 25.39999999999999900 ) ;
#303 = DIRECTION ( 'NONE',  ( 0.0000000000000000000, -1.000000000000000000, 0.0000000000000000000 ) ) ;
#304 = EDGE_CURVE ( 'NONE', #264, #161, #33, .T. ) ;
#305 = CIRCLE ( 'NONE', #188, 25.39999999999997700 ) ;
#306 = AXIS2_PLACEMENT_3D ( 'NONE', #119, #38, #294 ) ;
#307 = DIRECTION ( 'NONE',  ( 0.0000000000000000000, 1.000000000000000000, 0.0000000000000000000 ) ) ;
#308 = CIRCLE ( 'NONE', #217, 25.39999999999999100 ) ;
#309 = CARTESIAN_POINT ( 'NONE',  ( 457.7805592743230200, 0.0000000000000000000, -6.453996819439198100E-015 ) ) ;
#310 = DIRECTION ( 'NONE',  ( 0.0000000000000000000, 0.0000000000000000000, 1.000000000000000000 ) ) ;
#311 = ORIENTED_EDGE ( 'NONE', *, *, #23, .F. ) ;
#312 = MECHANICAL_DESIGN_GEOMETRIC_PRESENTATION_REPRESENTATION (  '', ( #276 ), #326 ) ;
#313 = SPHERICAL_SURFACE ( 'NONE', #319, 134.0000000000001100 ) ;
#314 = ORIENTED_EDGE ( 'NONE', *, *, #298, .T. ) ;
#315 = CARTESIAN_POINT ( 'NONE',  ( 563.9854555832974900, 0.0000000000000000000, 25.39999999999999100 ) ) ;
#316 = ADVANCED_FACE ( 'NONE', ( #239 ), #322, .T. ) ;
#317 = EDGE_CURVE ( 'NONE', #134, #123, #182, .T. ) ;
#318 = ORIENTED_EDGE ( 'NONE', *, *, #304, .F. ) ;
#319 = AXIS2_PLACEMENT_3D ( 'NONE', #327, #13, #261 ) ;
#320 =( LENGTH_UNIT ( ) NAMED_UNIT ( * ) SI_UNIT ( .MILLI., .METRE. ) );
#321 = CYLINDRICAL_SURFACE ( 'NONE', #233, 25.39999999999998800 ) ;
#322 = CYLINDRICAL_SURFACE ( 'NONE', #242, 25.39999999999998800 ) ;
#323 = CARTESIAN_POINT ( 'NONE',  ( 563.9854555832974900, 0.0000000000000000000, 0.0000000000000000000 ) ) ;
#324 = DIRECTION ( 'NONE',  ( 0.0000000000000000000, 0.0000000000000000000, 1.000000000000000000 ) ) ;
#325 = PRESENTATION_STYLE_ASSIGNMENT (( #42 ) ) ;
#326 =( GEOMETRIC_REPRESENTATION_CONTEXT ( 3 ) GLOBAL_UNCERTAINTY_ASSIGNED_CONTEXT ( ( #141 ) ) GLOBAL_UNIT_ASSIGNED_CONTEXT ( ( #320, #159, #300 ) ) REPRESENTATION_CONTEXT ( 'NONE', 'WORKASPACE' ) );
#327 = CARTESIAN_POINT ( 'NONE',  ( 692.7805592743230800, 0.0000000000000000000, -7.833322541022723000E-015 ) ) ;
#328 = CARTESIAN_POINT ( 'NONE',  ( 563.9854555832974900, 3.110602869834276100E-015, -25.39999999999999100 ) ) ;
#329 = SURFACE_STYLE_USAGE ( .BOTH. , #2 ) ;
#330 = SURFACE_STYLE_FILL_AREA ( #205 ) ;
#331 = DIRECTION ( 'NONE',  ( 0.0000000000000000000, 0.0000000000000000000, 1.000000000000000000 ) ) ;
#332 = EDGE_CURVE ( 'NONE', #208, #81, #302, .T. ) ;
#333 = ORIENTED_EDGE ( 'NONE', *, *, #80, .T. ) ;
#334 = CARTESIAN_POINT ( 'NONE',  ( 457.7805592743230200, 0.0000000000000000000, -6.453996819439198100E-015 ) ) ;
#335 = AXIS2_PLACEMENT_3D ( 'NONE', #109, #185, #144 ) ;
#336 = ORIENTED_EDGE ( 'NONE', *, *, #154, .F. ) ;
#337 = ORIENTED_EDGE ( 'NONE', *, *, #317, .T. ) ;
#338 = CIRCLE ( 'NONE', #18, 515.2000000000000500 ) ;
#339 = DIRECTION ( 'NONE',  ( 0.0000000000000000000, 0.0000000000000000000, 1.000000000000000000 ) ) ;
#340 = VERTEX_POINT ( 'NONE', #130 ) ;
#341 = DIRECTION ( 'NONE',  ( -1.000000000000000000, -0.0000000000000000000, -0.0000000000000000000 ) ) ;
#342 = CYLINDRICAL_SURFACE ( 'NONE', #74, 25.39999999999999100 ) ;
#343 = EDGE_CURVE ( 'NONE', #270, #264, #173, .T. ) ;
#344 = AXIS2_PLACEMENT_3D ( 'NONE', #36, #225, #29 ) ;
#345 = DIRECTION ( 'NONE',  ( 1.000000000000000000, 0.0000000000000000000, 0.0000000000000000000 ) ) ;
#346 = CARTESIAN_POINT ( 'NONE',  ( 571.3540525675551900, 3.110602869834275300E-015, -25.39999999999997700 ) ) ;
#347 = CARTESIAN_POINT ( 'NONE',  ( 566.9805592743231300, 0.0000000000000000000, 2.325747039053553000E-016 ) ) ;
ENDSEC;
END-ISO-10303-21;
