ISO-10303-21;
HEADER;
FILE_DESCRIPTION (( 'STEP AP214' ),
    '1' );
FILE_NAME ('145129.STEP',
    '2019-06-04T01:50:33',
    ( 'user' ),
    ( 'Î¢ÈíÖÐ¹ú' ),
    'SwSTEP 2.0',
    'SolidWorks 2016',
    '' );
FILE_SCHEMA (( 'AUTOMOTIVE_DESIGN' ));
ENDSEC;

DATA;
#1 = EDGE_CURVE ( 'NONE', #150, #104, #10, .T. ) ;
#2 = PRESENTATION_STYLE_ASSIGNMENT (( #269 ) ) ;
#3 = COLOUR_RGB ( '',1.000000000000000000, 1.000000000000000000, 1.000000000000000000 ) ;
#4 = ORIENTED_EDGE ( 'NONE', *, *, #169, .F. ) ;
#5 = VECTOR ( 'NONE', #127, 1000.000000000000000 ) ;
#6 = AXIS2_PLACEMENT_3D ( 'NONE', #181, #24, #291 ) ;
#7 = ORIENTED_EDGE ( 'NONE', *, *, #158, .F. ) ;
#8 = CARTESIAN_POINT ( 'NONE',  ( 358.0816662084083100, 0.0000000000000000000, 0.0000000000000000000 ) ) ;
#9 = DIRECTION ( 'NONE',  ( 0.0000000000000000000, 0.0000000000000000000, 1.000000000000000000 ) ) ;
#10 = CIRCLE ( 'NONE', #145, 12.69999999999971900 ) ;
#11 = ORIENTED_EDGE ( 'NONE', *, *, #1, .F. ) ;
#12 = FACE_OUTER_BOUND ( 'NONE', #22, .T. ) ;
#13 = EDGE_CURVE ( 'NONE', #108, #234, #153, .T. ) ;
#14 =( LENGTH_UNIT ( ) NAMED_UNIT ( * ) SI_UNIT ( .MILLI., .METRE. ) );
#15 = SURFACE_STYLE_FILL_AREA ( #62 ) ;
#16 = CARTESIAN_POINT ( 'NONE',  ( 353.8572350411293400, 0.0000000000000000000, 0.0000000000000000000 ) ) ;
#17 = CARTESIAN_POINT ( 'NONE',  ( 352.5015692726396400, 0.0000000000000000000, 0.0000000000000000000 ) ) ;
#18 = EDGE_LOOP ( 'NONE', ( #325, #152, #276, #61 ) ) ;
#19 = PRODUCT_DEFINITION_SHAPE ( 'NONE', 'NONE',  #346 ) ;
#20 = PRODUCT_DEFINITION_FORMATION_WITH_SPECIFIED_SOURCE ( 'ÈÎºÎ', '', #338, .NOT_KNOWN. ) ;
#21 = ADVANCED_FACE ( 'NONE', ( #287 ), #210, .T. ) ;
#22 = EDGE_LOOP ( 'NONE', ( #107, #335, #220 ) ) ;
#23 = VECTOR ( 'NONE', #119, 1000.000000000000000 ) ;
#24 = DIRECTION ( 'NONE',  ( -0.0000000000000000000, -1.000000000000000000, -0.0000000000000000000 ) ) ;
#25 = MANIFOLD_SOLID_BREP ( 'Ðý×ª1', #318 ) ;
#26 = AXIS2_PLACEMENT_3D ( 'NONE', #109, #301, #86 ) ;
#27 = EDGE_CURVE ( 'NONE', #101, #234, #79, .T. ) ;
#28 = CYLINDRICAL_SURFACE ( 'NONE', #247, 12.69999999999971900 ) ;
#29 = CARTESIAN_POINT ( 'NONE',  ( 353.8572350411293400, 1.555301434917104100E-015, -12.69999999999971900 ) ) ;
#30 = ORIENTED_EDGE ( 'NONE', *, *, #316, .F. ) ;
#31 = FACE_OUTER_BOUND ( 'NONE', #217, .T. ) ;
#32 = DIRECTION ( 'NONE',  ( 0.0000000000000000000, -1.224646799147353200E-016, 1.000000000000000000 ) ) ;
#33 = PRODUCT_RELATED_PRODUCT_CATEGORY ( 'part', '', ( #338 ) ) ;
#34 = ORIENTED_EDGE ( 'NONE', *, *, #342, .T. ) ;
#35 = DIRECTION ( 'NONE',  ( -1.000000000000000000, -0.0000000000000000000, -0.0000000000000000000 ) ) ;
#36 = DIRECTION ( 'NONE',  ( -1.000000000000000000, -0.0000000000000000000, -0.0000000000000000000 ) ) ;
#37 = APPLICATION_PROTOCOL_DEFINITION ( 'draft international standard', 'automotive_design', 1998, #88 ) ;
#38 =( NAMED_UNIT ( * ) SI_UNIT ( $, .STERADIAN. ) SOLID_ANGLE_UNIT ( ) );
#39 = SURFACE_SIDE_STYLE ('',( #275 ) ) ;
#40 = AXIS2_PLACEMENT_3D ( 'NONE', #328, #168, #303 ) ;
#41 = APPLICATION_PROTOCOL_DEFINITION ( 'draft international standard', 'automotive_design', 1998, #116 ) ;
#42 = DIRECTION ( 'NONE',  ( 0.0000000000000000000, 0.0000000000000000000, 1.000000000000000000 ) ) ;
#43 =( GEOMETRIC_REPRESENTATION_CONTEXT ( 3 ) GLOBAL_UNCERTAINTY_ASSIGNED_CONTEXT ( ( #143 ) ) GLOBAL_UNIT_ASSIGNED_CONTEXT ( ( #14, #172, #332 ) ) REPRESENTATION_CONTEXT ( 'NONE', 'WORKASPACE' ) );
#44 = ADVANCED_FACE ( 'NONE', ( #31 ), #28, .T. ) ;
#45 = ORIENTED_EDGE ( 'NONE', *, *, #27, .F. ) ;
#46 = DIRECTION ( 'NONE',  ( 0.0000000000000000000, 0.0000000000000000000, 1.000000000000000000 ) ) ;
#47 = PRESENTATION_LAYER_ASSIGNMENT (  '', '', ( #333 ) ) ;
#48 = SPHERICAL_SURFACE ( 'NONE', #188, 62.75000000000011400 ) ;
#49 = DIRECTION ( 'NONE',  ( -1.000000000000000000, -0.0000000000000000000, -0.0000000000000000000 ) ) ;
#50 = EDGE_CURVE ( 'NONE', #108, #211, #94, .T. ) ;
#51 = DIRECTION ( 'NONE',  ( 0.0000000000000000000, 1.000000000000000000, 0.0000000000000000000 ) ) ;
#52 = ORIENTED_EDGE ( 'NONE', *, *, #331, .T. ) ;
#53 = DIRECTION ( 'NONE',  ( 0.0000000000000000000, 1.000000000000000000, 0.0000000000000000000 ) ) ;
#54 = FACE_OUTER_BOUND ( 'NONE', #58, .T. ) ;
#55 = ORIENTED_EDGE ( 'NONE', *, *, #256, .T. ) ;
#56 = AXIS2_PLACEMENT_3D ( 'NONE', #194, #87, #135 ) ;
#57 =( NAMED_UNIT ( * ) PLANE_ANGLE_UNIT ( ) SI_UNIT ( $, .RADIAN. ) );
#58 = EDGE_LOOP ( 'NONE', ( #341, #137, #239, #197 ) ) ;
#59 = CARTESIAN_POINT ( 'NONE',  ( 411.7558518182920000, 0.0000000000000000000, -2.810998567308808200E-013 ) ) ;
#60 = VECTOR ( 'NONE', #271, 1000.000000000000000 ) ;
#61 = ORIENTED_EDGE ( 'NONE', *, *, #229, .F. ) ;
#62 = FILL_AREA_STYLE ('',( #305 ) ) ;
#63 = CARTESIAN_POINT ( 'NONE',  ( 124.5233095260452400, 0.0000000000000000000, 0.0000000000000000000 ) ) ;
#64 =( LENGTH_UNIT ( ) NAMED_UNIT ( * ) SI_UNIT ( .MILLI., .METRE. ) );
#65 = VERTEX_POINT ( 'NONE', #329 ) ;
#66 = EDGE_CURVE ( 'NONE', #65, #74, #236, .T. ) ;
#67 = CARTESIAN_POINT ( 'NONE',  ( -0.5519199926577972300, 0.0000000000000000000, 12.69999999999987500 ) ) ;
#68 = CARTESIAN_POINT ( 'NONE',  ( 352.5015692726396400, 0.0000000000000000000, 0.0000000000000000000 ) ) ;
#69 = ADVANCED_FACE ( 'NONE', ( #311 ), #299, .T. ) ;
#70 = CARTESIAN_POINT ( 'NONE',  ( -0.5519199926577972300, 0.0000000000000000000, 0.0000000000000000000 ) ) ;
#71 = DIRECTION ( 'NONE',  ( 0.0000000000000000000, 0.0000000000000000000, 1.000000000000000000 ) ) ;
#72 = ORIENTED_EDGE ( 'NONE', *, *, #13, .T. ) ;
#73 = COLOUR_RGB ( '',1.000000000000000000, 1.000000000000000000, 1.000000000000000000 ) ;
#74 = VERTEX_POINT ( 'NONE', #166 ) ;
#75 = FACE_OUTER_BOUND ( 'NONE', #264, .T. ) ;
#76 = STYLED_ITEM ( 'NONE', ( #203 ), #25 ) ;
#77 = AXIS2_PLACEMENT_3D ( 'NONE', #245, #35, #216 ) ;
#78 = CARTESIAN_POINT ( 'NONE',  ( 353.8572350411293400, 0.0000000000000000000, 0.0000000000000000000 ) ) ;
#79 = LINE ( 'NONE', #67, #102 ) ;
#80 = AXIS2_PLACEMENT_3D ( 'NONE', #180, #262, #315 ) ;
#81 = FACE_OUTER_BOUND ( 'NONE', #163, .T. ) ;
#82 = MANIFOLD_SOLID_BREP ( 'Ðý×ª3', #302 ) ;
#83 = UNCERTAINTY_MEASURE_WITH_UNIT (LENGTH_MEASURE( 1.000000000000000100E-005 ), #133, 'distance_accuracy_value', 'NONE');
#84 = COLOUR_RGB ( '',1.000000000000000000, 1.000000000000000000, 1.000000000000000000 ) ;
#85 = AXIS2_PLACEMENT_3D ( 'NONE', #139, #304, #112 ) ;
#86 = DIRECTION ( 'NONE',  ( 0.0000000000000000000, 0.0000000000000000000, -1.000000000000000000 ) ) ;
#87 = DIRECTION ( 'NONE',  ( -0.0000000000000000000, -1.000000000000000000, -0.0000000000000000000 ) ) ;
#88 = APPLICATION_CONTEXT ( 'automotive_design' ) ;
#89 = CYLINDRICAL_SURFACE ( 'NONE', #243, 12.69999999999971900 ) ;
#90 = DIRECTION ( 'NONE',  ( 0.0000000000000000000, 0.0000000000000000000, 1.000000000000000000 ) ) ;
#91 = DIRECTION ( 'NONE',  ( 0.0000000000000000000, 0.0000000000000000000, -1.000000000000000000 ) ) ;
#92 = AXIS2_PLACEMENT_3D ( 'NONE', #8, #134, #326 ) ;
#93 = ORIENTED_EDGE ( 'NONE', *, *, #306, .F. ) ;
#94 = CIRCLE ( 'NONE', #85, 62.75000000000011400 ) ;
#95 = ADVANCED_FACE ( 'NONE', ( #161 ), #167, .T. ) ;
#96 = EDGE_LOOP ( 'NONE', ( #7, #286, #4 ) ) ;
#97 = DIRECTION ( 'NONE',  ( -1.000000000000000000, -0.0000000000000000000, -0.0000000000000000000 ) ) ;
#98 = AXIS2_PLACEMENT_3D ( 'NONE', #195, #244, #189 ) ;
#99 = DIRECTION ( 'NONE',  ( 0.0000000000000000000, 0.0000000000000000000, 1.000000000000000000 ) ) ;
#100 = DIRECTION ( 'NONE',  ( 0.0000000000000000000, 0.0000000000000000000, 1.000000000000000000 ) ) ;
#101 = VERTEX_POINT ( 'NONE', #237 ) ;
#102 = VECTOR ( 'NONE', #175, 1000.000000000000000 ) ;
#103 = CARTESIAN_POINT ( 'NONE',  ( 353.8572350411293400, 0.0000000000000000000, 12.69999999999974000 ) ) ;
#104 = VERTEX_POINT ( 'NONE', #29 ) ;
#105 = AXIS2_PLACEMENT_3D ( 'NONE', #17, #199, #42 ) ;
#106 = SURFACE_SIDE_STYLE ('',( #138 ) ) ;
#107 = ORIENTED_EDGE ( 'NONE', *, *, #13, .F. ) ;
#108 = VERTEX_POINT ( 'NONE', #265 ) ;
#109 = CARTESIAN_POINT ( 'NONE',  ( 411.7558518182920000, 0.0000000000000000000, -2.810998567308808200E-013 ) ) ;
#110 = CARTESIAN_POINT ( 'NONE',  ( 124.5233095260452400, 1.555301434917104100E-015, -12.69999999999971900 ) ) ;
#111 = CYLINDRICAL_SURFACE ( 'NONE', #147, 12.69999999999987500 ) ;
#112 = DIRECTION ( 'NONE',  ( 0.0000000000000000000, -1.224646799147353200E-016, 1.000000000000000000 ) ) ;
#113 = EDGE_CURVE ( 'NONE', #234, #211, #226, .T. ) ;
#114 = DIRECTION ( 'NONE',  ( 0.0000000000000000000, 0.0000000000000000000, -1.000000000000000000 ) ) ;
#115 = FACE_OUTER_BOUND ( 'NONE', #96, .T. ) ;
#116 = APPLICATION_CONTEXT ( 'automotive_design' ) ;
#117 = CARTESIAN_POINT ( 'NONE',  ( 292.4058518182920400, 0.0000000000000000000, -2.830822056292759800E-013 ) ) ;
#118 = ADVANCED_FACE ( 'NONE', ( #115 ), #48, .T. ) ;
#119 = DIRECTION ( 'NONE',  ( -1.000000000000000000, -0.0000000000000000000, -0.0000000000000000000 ) ) ;
#120 = CIRCLE ( 'NONE', #105, 12.69999999999971900 ) ;
#121 = CARTESIAN_POINT ( 'NONE',  ( -0.5519199926577972300, 1.555301434917123200E-015, -12.69999999999987500 ) ) ;
#122 = CARTESIAN_POINT ( 'NONE',  ( 124.5233095260452400, 0.0000000000000000000, 12.69999999999971900 ) ) ;
#123 = CARTESIAN_POINT ( 'NONE',  ( 357.1558518182921500, 0.0000000000000000000, -5.362116010066684400E-015 ) ) ;
#124 = ORIENTED_EDGE ( 'NONE', *, *, #151, .T. ) ;
#125 = AXIS2_PLACEMENT_3D ( 'NONE', #171, #148, #114 ) ;
#126 = DIRECTION ( 'NONE',  ( -1.000000000000000000, -0.0000000000000000000, -0.0000000000000000000 ) ) ;
#127 = DIRECTION ( 'NONE',  ( -1.000000000000000000, -0.0000000000000000000, -0.0000000000000000000 ) ) ;
#128 = LINE ( 'NONE', #110, #60 ) ;
#129 = EDGE_LOOP ( 'NONE', ( #336, #55, #241 ) ) ;
#130 = MECHANICAL_DESIGN_GEOMETRIC_PRESENTATION_REPRESENTATION (  '', ( #76 ), #43 ) ;
#131 = ORIENTED_EDGE ( 'NONE', *, *, #347, .F. ) ;
#132 = FACE_OUTER_BOUND ( 'NONE', #273, .T. ) ;
#133 =( LENGTH_UNIT ( ) NAMED_UNIT ( * ) SI_UNIT ( .MILLI., .METRE. ) );
#134 = DIRECTION ( 'NONE',  ( -1.000000000000000000, -0.0000000000000000000, -0.0000000000000000000 ) ) ;
#135 = DIRECTION ( 'NONE',  ( 0.0000000000000000000, 0.0000000000000000000, -1.000000000000000000 ) ) ;
#136 = CARTESIAN_POINT ( 'NONE',  ( 358.0816662084083100, 1.555301434917139800E-015, -12.70000000000001000 ) ) ;
#137 = ORIENTED_EDGE ( 'NONE', *, *, #164, .T. ) ;
#138 = SURFACE_STYLE_FILL_AREA ( #298 ) ;
#139 = CARTESIAN_POINT ( 'NONE',  ( 292.4058518182920400, 0.0000000000000000000, -2.830822056292759800E-013 ) ) ;
#140 = DIRECTION ( 'NONE',  ( 0.0000000000000000000, 1.224646799147353200E-016, -1.000000000000000000 ) ) ;
#141 = EDGE_LOOP ( 'NONE', ( #34, #343, #30 ) ) ;
#142 = CYLINDRICAL_SURFACE ( 'NONE', #314, 12.69999999999987500 ) ;
#143 = UNCERTAINTY_MEASURE_WITH_UNIT (LENGTH_MEASURE( 1.000000000000000100E-005 ), #14, 'distance_accuracy_value', 'NONE');
#144 =( NAMED_UNIT ( * ) PLANE_ANGLE_UNIT ( ) SI_UNIT ( $, .RADIAN. ) );
#145 = AXIS2_PLACEMENT_3D ( 'NONE', #16, #252, #225 ) ;
#146 = FILL_AREA_STYLE_COLOUR ( '', #3 ) ;
#147 = AXIS2_PLACEMENT_3D ( 'NONE', #192, #36, #300 ) ;
#148 = DIRECTION ( 'NONE',  ( 0.0000000000000000000, -1.000000000000000000, 0.0000000000000000000 ) ) ;
#149 = ADVANCED_FACE ( 'NONE', ( #248 ), #89, .T. ) ;
#150 = VERTEX_POINT ( 'NONE', #179 ) ;
#151 = EDGE_CURVE ( 'NONE', #308, #211, #162, .T. ) ;
#152 = ORIENTED_EDGE ( 'NONE', *, *, #306, .T. ) ;
#153 = CIRCLE ( 'NONE', #267, 62.75000000000011400 ) ;
#154 = DIRECTION ( 'NONE',  ( -1.000000000000000000, -0.0000000000000000000, -0.0000000000000000000 ) ) ;
#155 = AXIS2_PLACEMENT_3D ( 'NONE', #68, #251, #9 ) ;
#156 = CIRCLE ( 'NONE', #232, 12.69999999999971900 ) ;
#157 = CARTESIAN_POINT ( 'NONE',  ( 352.5015692726396400, 0.0000000000000000000, 12.69999999999972200 ) ) ;
#158 = EDGE_CURVE ( 'NONE', #261, #104, #219, .T. ) ;
#159 = CARTESIAN_POINT ( 'NONE',  ( 358.0816662084083100, 0.0000000000000000000, 0.0000000000000000000 ) ) ;
#160 = UNCERTAINTY_MEASURE_WITH_UNIT (LENGTH_MEASURE( 1.000000000000000100E-005 ), #246, 'distance_accuracy_value', 'NONE');
#161 = FACE_OUTER_BOUND ( 'NONE', #129, .T. ) ;
#162 = LINE ( 'NONE', #121, #23 ) ;
#163 = EDGE_LOOP ( 'NONE', ( #52, #124, #204, #45 ) ) ;
#164 = EDGE_CURVE ( 'NONE', #308, #101, #295, .T. ) ;
#165 = AXIS2_PLACEMENT_3D ( 'NONE', #249, #330, #140 ) ;
#166 = CARTESIAN_POINT ( 'NONE',  ( 351.1558518182920400, 0.0000000000000000000, -2.773891769294643300E-013 ) ) ;
#167 = SPHERICAL_SURFACE ( 'NONE', #187, 60.60000000000000900 ) ;
#168 = DIRECTION ( 'NONE',  ( 0.0000000000000000000, 1.000000000000000000, 0.0000000000000000000 ) ) ;
#169 = EDGE_CURVE ( 'NONE', #104, #150, #156, .T. ) ;
#170 = CARTESIAN_POINT ( 'NONE',  ( 411.7558518182920000, 0.0000000000000000000, -2.810998567308808200E-013 ) ) ;
#171 = CARTESIAN_POINT ( 'NONE',  ( 292.4058518182920400, 0.0000000000000000000, -2.830822056292759800E-013 ) ) ;
#172 =( NAMED_UNIT ( * ) PLANE_ANGLE_UNIT ( ) SI_UNIT ( $, .RADIAN. ) );
#173 = PRODUCT_CONTEXT ( 'NONE', #88, 'mechanical' ) ;
#174 = ORIENTED_EDGE ( 'NONE', *, *, #158, .T. ) ;
#175 = DIRECTION ( 'NONE',  ( -1.000000000000000000, -0.0000000000000000000, -0.0000000000000000000 ) ) ;
#176 = ADVANCED_FACE ( 'NONE', ( #81 ), #142, .T. ) ;
#177 = ORIENTED_EDGE ( 'NONE', *, *, #331, .F. ) ;
#178 = AXIS2_PLACEMENT_3D ( 'NONE', #159, #49, #288 ) ;
#179 = CARTESIAN_POINT ( 'NONE',  ( 353.8572350411293400, 0.0000000000000000000, 12.69999999999971900 ) ) ;
#180 = CARTESIAN_POINT ( 'NONE',  ( 292.4058518182920400, 0.0000000000000000000, -2.830822056292759800E-013 ) ) ;
#181 = CARTESIAN_POINT ( 'NONE',  ( 444.7258518182920900, 0.0000000000000000000, 0.0000000000000000000 ) ) ;
#182 =( GEOMETRIC_REPRESENTATION_CONTEXT ( 3 ) GLOBAL_UNCERTAINTY_ASSIGNED_CONTEXT ( ( #282 ) ) GLOBAL_UNIT_ASSIGNED_CONTEXT ( ( #64, #144, #334 ) ) REPRESENTATION_CONTEXT ( 'NONE', 'WORKASPACE' ) );
#183 = CARTESIAN_POINT ( 'NONE',  ( 353.8572350411293400, 1.555301434917106500E-015, -12.70000000000002100 ) ) ;
#184 = CARTESIAN_POINT ( 'NONE',  ( 292.4058518182920400, 0.0000000000000000000, -2.830822056292759800E-013 ) ) ;
#185 = CIRCLE ( 'NONE', #125, 62.75000000000011400 ) ;
#186 = SPHERICAL_SURFACE ( 'NONE', #40, 62.75000000000011400 ) ;
#187 = AXIS2_PLACEMENT_3D ( 'NONE', #170, #51, #293 ) ;
#188 = AXIS2_PLACEMENT_3D ( 'NONE', #233, #53, #71 ) ;
#189 = DIRECTION ( 'NONE',  ( 0.0000000000000000000, 0.0000000000000000000, 1.000000000000000000 ) ) ;
#190 = ORIENTED_EDGE ( 'NONE', *, *, #238, .T. ) ;
#191 = AXIS2_PLACEMENT_3D ( 'NONE', #184, #345, #263 ) ;
#192 = CARTESIAN_POINT ( 'NONE',  ( -0.5519199926577972300, 0.0000000000000000000, 0.0000000000000000000 ) ) ;
#193 = CIRCLE ( 'NONE', #77, 12.69999999999973800 ) ;
#194 = CARTESIAN_POINT ( 'NONE',  ( 444.7258518182920900, 0.0000000000000000000, 0.0000000000000000000 ) ) ;
#195 = CARTESIAN_POINT ( 'NONE',  ( 292.4058518182920400, 0.0000000000000000000, -2.830822056292759800E-013 ) ) ;
#196 =( NAMED_UNIT ( * ) PLANE_ANGLE_UNIT ( ) SI_UNIT ( $, .RADIAN. ) );
#197 = ORIENTED_EDGE ( 'NONE', *, *, #320, .F. ) ;
#198 = SURFACE_STYLE_USAGE ( .BOTH. , #39 ) ;
#199 = DIRECTION ( 'NONE',  ( -1.000000000000000000, -0.0000000000000000000, -0.0000000000000000000 ) ) ;
#200 = CIRCLE ( 'NONE', #26, 60.60000000000000900 ) ;
#201 = CARTESIAN_POINT ( 'NONE',  ( 124.5233095260452400, 0.0000000000000000000, 0.0000000000000000000 ) ) ;
#202 = VERTEX_POINT ( 'NONE', #157 ) ;
#203 = PRESENTATION_STYLE_ASSIGNMENT (( #198 ) ) ;
#204 = ORIENTED_EDGE ( 'NONE', *, *, #113, .F. ) ;
#205 = CIRCLE ( 'NONE', #208, 87.56999999999996500 ) ;
#206 = PRODUCT_DEFINITION_CONTEXT ( 'detailed design', #116, 'design' ) ;
#207 = ORIENTED_EDGE ( 'NONE', *, *, #50, .F. ) ;
#208 = AXIS2_PLACEMENT_3D ( 'NONE', #344, #260, #100 ) ;
#209 = ORIENTED_EDGE ( 'NONE', *, *, #347, .T. ) ;
#210 = SPHERICAL_SURFACE ( 'NONE', #259, 60.60000000000000900 ) ;
#211 = VERTEX_POINT ( 'NONE', #183 ) ;
#212 = SPHERICAL_SURFACE ( 'NONE', #191, 62.75000000000011400 ) ;
#213 = STYLED_ITEM ( 'NONE', ( #292 ), #214 ) ;
#214 = ADVANCED_BREP_SHAPE_REPRESENTATION ( '145129', ( #25, #82, #323 ), #182 ) ;
#215 = DIRECTION ( 'NONE',  ( -0.0000000000000000000, 1.000000000000000000, 1.224646799147353200E-016 ) ) ;
#216 = DIRECTION ( 'NONE',  ( 0.0000000000000000000, 0.0000000000000000000, 1.000000000000000000 ) ) ;
#217 = EDGE_LOOP ( 'NONE', ( #93, #294, #296, #283 ) ) ;
#218 = ORIENTED_EDGE ( 'NONE', *, *, #340, .F. ) ;
#219 = CIRCLE ( 'NONE', #80, 62.75000000000011400 ) ;
#220 = ORIENTED_EDGE ( 'NONE', *, *, #320, .T. ) ;
#221 = AXIS2_PLACEMENT_3D ( 'NONE', #285, #97, #257 ) ;
#222 = CARTESIAN_POINT ( 'NONE',  ( 355.1558518182921500, 0.0000000000000000000, -2.792398762969511500E-013 ) ) ;
#223 = FILL_AREA_STYLE ('',( #146 ) ) ;
#224 = CARTESIAN_POINT ( 'NONE',  ( 0.0000000000000000000, 0.0000000000000000000, 0.0000000000000000000 ) ) ;
#225 = DIRECTION ( 'NONE',  ( 0.0000000000000000000, 0.0000000000000000000, 1.000000000000000000 ) ) ;
#226 = CIRCLE ( 'NONE', #221, 12.69999999999973800 ) ;
#227 = ADVANCED_FACE ( 'NONE', ( #12 ), #212, .F. ) ;
#228 = ORIENTED_EDGE ( 'NONE', *, *, #164, .F. ) ;
#229 = EDGE_CURVE ( 'NONE', #150, #202, #231, .T. ) ;
#230 = DIRECTION ( 'NONE',  ( -1.000000000000000000, -0.0000000000000000000, -0.0000000000000000000 ) ) ;
#231 = LINE ( 'NONE', #122, #5 ) ;
#232 = AXIS2_PLACEMENT_3D ( 'NONE', #78, #126, #317 ) ;
#233 = CARTESIAN_POINT ( 'NONE',  ( 292.4058518182920400, 0.0000000000000000000, -2.830822056292759800E-013 ) ) ;
#234 = VERTEX_POINT ( 'NONE', #103 ) ;
#235 = PRESENTATION_LAYER_ASSIGNMENT (  '', '', ( #213 ) ) ;
#236 = CIRCLE ( 'NONE', #240, 60.60000000000000900 ) ;
#237 = CARTESIAN_POINT ( 'NONE',  ( 358.0816662084083100, 0.0000000000000000000, 12.70000000000001000 ) ) ;
#238 = EDGE_CURVE ( 'NONE', #308, #268, #205, .T. ) ;
#239 = ORIENTED_EDGE ( 'NONE', *, *, #27, .T. ) ;
#240 = AXIS2_PLACEMENT_3D ( 'NONE', #59, #215, #32 ) ;
#241 = ORIENTED_EDGE ( 'NONE', *, *, #316, .T. ) ;
#242 =( NAMED_UNIT ( * ) SI_UNIT ( $, .STERADIAN. ) SOLID_ANGLE_UNIT ( ) );
#243 = AXIS2_PLACEMENT_3D ( 'NONE', #201, #230, #46 ) ;
#244 = DIRECTION ( 'NONE',  ( 0.0000000000000000000, 1.000000000000000000, 0.0000000000000000000 ) ) ;
#245 = CARTESIAN_POINT ( 'NONE',  ( 353.8572350411293400, 0.0000000000000000000, 0.0000000000000000000 ) ) ;
#246 =( LENGTH_UNIT ( ) NAMED_UNIT ( * ) SI_UNIT ( .MILLI., .METRE. ) );
#247 = AXIS2_PLACEMENT_3D ( 'NONE', #63, #307, #90 ) ;
#248 = FACE_OUTER_BOUND ( 'NONE', #18, .T. ) ;
#249 = CARTESIAN_POINT ( 'NONE',  ( 444.7258518182920900, 0.0000000000000000000, 0.0000000000000000000 ) ) ;
#250 = DIRECTION ( 'NONE',  ( 0.0000000000000000000, 0.0000000000000000000, 1.000000000000000000 ) ) ;
#251 = DIRECTION ( 'NONE',  ( -1.000000000000000000, -0.0000000000000000000, -0.0000000000000000000 ) ) ;
#252 = DIRECTION ( 'NONE',  ( -1.000000000000000000, -0.0000000000000000000, -0.0000000000000000000 ) ) ;
#253 = MECHANICAL_DESIGN_GEOMETRIC_PRESENTATION_REPRESENTATION (  '', ( #213 ), #270 ) ;
#254 = DIRECTION ( 'NONE',  ( 1.000000000000000000, 0.0000000000000000000, 0.0000000000000000000 ) ) ;
#255 = ADVANCED_FACE ( 'NONE', ( #75 ), #279, .F. ) ;
#256 = EDGE_CURVE ( 'NONE', #65, #202, #319, .T. ) ;
#257 = DIRECTION ( 'NONE',  ( 0.0000000000000000000, 0.0000000000000000000, 1.000000000000000000 ) ) ;
#258 = CIRCLE ( 'NONE', #165, 87.56999999999996500 ) ;
#259 = AXIS2_PLACEMENT_3D ( 'NONE', #312, #310, #250 ) ;
#260 = DIRECTION ( 'NONE',  ( 0.0000000000000000000, 1.000000000000000000, -0.0000000000000000000 ) ) ;
#261 = VERTEX_POINT ( 'NONE', #222 ) ;
#262 = DIRECTION ( 'NONE',  ( -0.0000000000000000000, 1.000000000000000000, 1.224646799147353200E-016 ) ) ;
#263 = DIRECTION ( 'NONE',  ( 0.0000000000000000000, 0.0000000000000000000, 1.000000000000000000 ) ) ;
#264 = EDGE_LOOP ( 'NONE', ( #177, #209, #272 ) ) ;
#265 = CARTESIAN_POINT ( 'NONE',  ( 355.1558518182921500, 0.0000000000000000000, -2.792398762969511500E-013 ) ) ;
#266 = CIRCLE ( 'NONE', #92, 12.70000000000001000 ) ;
#267 = AXIS2_PLACEMENT_3D ( 'NONE', #117, #280, #91 ) ;
#268 = VERTEX_POINT ( 'NONE', #123 ) ;
#269 = SURFACE_STYLE_USAGE ( .BOTH. , #106 ) ;
#270 =( GEOMETRIC_REPRESENTATION_CONTEXT ( 3 ) GLOBAL_UNCERTAINTY_ASSIGNED_CONTEXT ( ( #160 ) ) GLOBAL_UNIT_ASSIGNED_CONTEXT ( ( #246, #196, #38 ) ) REPRESENTATION_CONTEXT ( 'NONE', 'WORKASPACE' ) );
#271 = DIRECTION ( 'NONE',  ( -1.000000000000000000, -0.0000000000000000000, -0.0000000000000000000 ) ) ;
#272 = ORIENTED_EDGE ( 'NONE', *, *, #238, .F. ) ;
#273 = EDGE_LOOP ( 'NONE', ( #207, #72, #289 ) ) ;
#274 = SURFACE_STYLE_USAGE ( .BOTH. , #278 ) ;
#275 = SURFACE_STYLE_FILL_AREA ( #223 ) ;
#276 = ORIENTED_EDGE ( 'NONE', *, *, #342, .F. ) ;
#277 =( GEOMETRIC_REPRESENTATION_CONTEXT ( 3 ) GLOBAL_UNCERTAINTY_ASSIGNED_CONTEXT ( ( #83 ) ) GLOBAL_UNIT_ASSIGNED_CONTEXT ( ( #133, #57, #242 ) ) REPRESENTATION_CONTEXT ( 'NONE', 'WORKASPACE' ) );
#278 = SURFACE_SIDE_STYLE ('',( #15 ) ) ;
#279 = SPHERICAL_SURFACE ( 'NONE', #6, 87.56999999999996500 ) ;
#280 = DIRECTION ( 'NONE',  ( 0.0000000000000000000, -1.000000000000000000, 0.0000000000000000000 ) ) ;
#281 = DIRECTION ( 'NONE',  ( 0.0000000000000000000, 0.0000000000000000000, 1.000000000000000000 ) ) ;
#282 = UNCERTAINTY_MEASURE_WITH_UNIT (LENGTH_MEASURE( 1.000000000000000100E-005 ), #64, 'distance_accuracy_value', 'NONE');
#283 = ORIENTED_EDGE ( 'NONE', *, *, #256, .F. ) ;
#284 = ADVANCED_FACE ( 'NONE', ( #132 ), #186, .F. ) ;
#285 = CARTESIAN_POINT ( 'NONE',  ( 353.8572350411293400, 0.0000000000000000000, 0.0000000000000000000 ) ) ;
#286 = ORIENTED_EDGE ( 'NONE', *, *, #340, .T. ) ;
#287 = FACE_OUTER_BOUND ( 'NONE', #141, .T. ) ;
#288 = DIRECTION ( 'NONE',  ( 0.0000000000000000000, 0.0000000000000000000, 1.000000000000000000 ) ) ;
#289 = ORIENTED_EDGE ( 'NONE', *, *, #113, .T. ) ;
#290 = FACE_OUTER_BOUND ( 'NONE', #309, .T. ) ;
#291 = DIRECTION ( 'NONE',  ( 0.0000000000000000000, 0.0000000000000000000, -1.000000000000000000 ) ) ;
#292 = PRESENTATION_STYLE_ASSIGNMENT (( #274 ) ) ;
#293 = DIRECTION ( 'NONE',  ( 0.0000000000000000000, 0.0000000000000000000, 1.000000000000000000 ) ) ;
#294 = ORIENTED_EDGE ( 'NONE', *, *, #169, .T. ) ;
#295 = CIRCLE ( 'NONE', #178, 12.70000000000001000 ) ;
#296 = ORIENTED_EDGE ( 'NONE', *, *, #229, .T. ) ;
#297 = MECHANICAL_DESIGN_GEOMETRIC_PRESENTATION_REPRESENTATION (  '', ( #333 ), #277 ) ;
#298 = FILL_AREA_STYLE ('',( #321 ) ) ;
#299 = SPHERICAL_SURFACE ( 'NONE', #98, 62.75000000000011400 ) ;
#300 = DIRECTION ( 'NONE',  ( 0.0000000000000000000, 0.0000000000000000000, 1.000000000000000000 ) ) ;
#301 = DIRECTION ( 'NONE',  ( 0.0000000000000000000, -1.000000000000000000, 0.0000000000000000000 ) ) ;
#302 = CLOSED_SHELL ( 'NONE', ( #255, #176, #227, #284, #337, #313 ) ) ;
#303 = DIRECTION ( 'NONE',  ( 0.0000000000000000000, 0.0000000000000000000, 1.000000000000000000 ) ) ;
#304 = DIRECTION ( 'NONE',  ( -0.0000000000000000000, 1.000000000000000000, 1.224646799147353200E-016 ) ) ;
#305 = FILL_AREA_STYLE_COLOUR ( '', #84 ) ;
#306 = EDGE_CURVE ( 'NONE', #104, #65, #128, .T. ) ;
#307 = DIRECTION ( 'NONE',  ( -1.000000000000000000, -0.0000000000000000000, -0.0000000000000000000 ) ) ;
#308 = VERTEX_POINT ( 'NONE', #136 ) ;
#309 = EDGE_LOOP ( 'NONE', ( #131, #228, #190 ) ) ;
#310 = DIRECTION ( 'NONE',  ( 0.0000000000000000000, 1.000000000000000000, 0.0000000000000000000 ) ) ;
#311 = FACE_OUTER_BOUND ( 'NONE', #324, .T. ) ;
#312 = CARTESIAN_POINT ( 'NONE',  ( 411.7558518182920000, 0.0000000000000000000, -2.810998567308808200E-013 ) ) ;
#313 = ADVANCED_FACE ( 'NONE', ( #290 ), #339, .F. ) ;
#314 = AXIS2_PLACEMENT_3D ( 'NONE', #70, #154, #99 ) ;
#315 = DIRECTION ( 'NONE',  ( 0.0000000000000000000, -1.224646799147353200E-016, 1.000000000000000000 ) ) ;
#316 = EDGE_CURVE ( 'NONE', #202, #74, #200, .T. ) ;
#317 = DIRECTION ( 'NONE',  ( 0.0000000000000000000, 0.0000000000000000000, 1.000000000000000000 ) ) ;
#318 = CLOSED_SHELL ( 'NONE', ( #69, #149, #21, #95, #44, #118 ) ) ;
#319 = CIRCLE ( 'NONE', #155, 12.69999999999971900 ) ;
#320 = EDGE_CURVE ( 'NONE', #211, #234, #193, .T. ) ;
#321 = FILL_AREA_STYLE_COLOUR ( '', #73 ) ;
#322 = PRESENTATION_LAYER_ASSIGNMENT (  '', '', ( #76 ) ) ;
#323 = AXIS2_PLACEMENT_3D ( 'NONE', #224, #281, #254 ) ;
#324 = EDGE_LOOP ( 'NONE', ( #218, #174, #11 ) ) ;
#325 = ORIENTED_EDGE ( 'NONE', *, *, #1, .T. ) ;
#326 = DIRECTION ( 'NONE',  ( 0.0000000000000000000, 0.0000000000000000000, 1.000000000000000000 ) ) ;
#327 = SHAPE_DEFINITION_REPRESENTATION ( #19, #214 ) ;
#328 = CARTESIAN_POINT ( 'NONE',  ( 292.4058518182920400, 0.0000000000000000000, -2.830822056292759800E-013 ) ) ;
#329 = CARTESIAN_POINT ( 'NONE',  ( 352.5015692726396400, 1.555301434917104500E-015, -12.70000000000000300 ) ) ;
#330 = DIRECTION ( 'NONE',  ( 0.0000000000000000000, -1.000000000000000000, -1.224646799147353200E-016 ) ) ;
#331 = EDGE_CURVE ( 'NONE', #101, #308, #266, .T. ) ;
#332 =( NAMED_UNIT ( * ) SI_UNIT ( $, .STERADIAN. ) SOLID_ANGLE_UNIT ( ) );
#333 = STYLED_ITEM ( 'NONE', ( #2 ), #82 ) ;
#334 =( NAMED_UNIT ( * ) SI_UNIT ( $, .STERADIAN. ) SOLID_ANGLE_UNIT ( ) );
#335 = ORIENTED_EDGE ( 'NONE', *, *, #50, .T. ) ;
#336 = ORIENTED_EDGE ( 'NONE', *, *, #66, .F. ) ;
#337 = ADVANCED_FACE ( 'NONE', ( #54 ), #111, .T. ) ;
#338 = PRODUCT ( '145129', '145129', '', ( #173 ) ) ;
#339 = SPHERICAL_SURFACE ( 'NONE', #56, 87.56999999999996500 ) ;
#340 = EDGE_CURVE ( 'NONE', #261, #150, #185, .T. ) ;
#341 = ORIENTED_EDGE ( 'NONE', *, *, #151, .F. ) ;
#342 = EDGE_CURVE ( 'NONE', #202, #65, #120, .T. ) ;
#343 = ORIENTED_EDGE ( 'NONE', *, *, #66, .T. ) ;
#344 = CARTESIAN_POINT ( 'NONE',  ( 444.7258518182920900, 0.0000000000000000000, 0.0000000000000000000 ) ) ;
#345 = DIRECTION ( 'NONE',  ( 0.0000000000000000000, 1.000000000000000000, 0.0000000000000000000 ) ) ;
#346 = PRODUCT_DEFINITION ( 'Î´Öª', '', #20, #206 ) ;
#347 = EDGE_CURVE ( 'NONE', #101, #268, #258, .T. ) ;
ENDSEC;
END-ISO-10303-21;
