ISO-10303-21;
HEADER;
FILE_DESCRIPTION (( 'STEP AP214' ),
    '1' );
FILE_NAME ('145113.STEP',
    '2019-05-31T01:33:13',
    ( 'user' ),
    ( 'Î¢ÈíÖÐ¹ú' ),
    'SwSTEP 2.0',
    'SolidWorks 2016',
    '' );
FILE_SCHEMA (( 'AUTOMOTIVE_DESIGN' ));
ENDSEC;

DATA;
#1 = UNCERTAINTY_MEASURE_WITH_UNIT (LENGTH_MEASURE( 1.000000000000000100E-005 ), #111, 'distance_accuracy_value', 'NONE');
#2 = CLOSED_SHELL ( 'NONE', ( #177, #343, #310, #259, #106, #285 ) ) ;
#3 = CYLINDRICAL_SURFACE ( 'NONE', #27, 6.350000000000002300 ) ;
#4 = CARTESIAN_POINT ( 'NONE',  ( 260.7089566504702100, 0.0000000000000000000, -3.469446951953614200E-015 ) ) ;
#5 = EDGE_LOOP ( 'NONE', ( #95, #266, #325, #189 ) ) ;
#6 = EDGE_CURVE ( 'NONE', #322, #187, #160, .T. ) ;
#7 = ORIENTED_EDGE ( 'NONE', *, *, #324, .T. ) ;
#8 = EDGE_CURVE ( 'NONE', #322, #342, #240, .T. ) ;
#9 = DIRECTION ( 'NONE',  ( 0.0000000000000000000, 0.0000000000000000000, -1.000000000000000000 ) ) ;
#10 = LINE ( 'NONE', #39, #29 ) ;
#11 =( NAMED_UNIT ( * ) SI_UNIT ( $, .STERADIAN. ) SOLID_ANGLE_UNIT ( ) );
#12 = DIRECTION ( 'NONE',  ( 0.0000000000000000000, 0.0000000000000000000, 1.000000000000000000 ) ) ;
#13 = DIRECTION ( 'NONE',  ( 0.0000000000000000000, 0.0000000000000000000, 1.000000000000000000 ) ) ;
#14 = PRODUCT_DEFINITION_FORMATION_WITH_SPECIFIED_SOURCE ( 'ÈÎºÎ', '', #64, .NOT_KNOWN. ) ;
#15 = DIRECTION ( 'NONE',  ( 0.0000000000000000000, 0.0000000000000000000, 1.000000000000000000 ) ) ;
#16 = EDGE_LOOP ( 'NONE', ( #275, #21, #101 ) ) ;
#17 = DIRECTION ( 'NONE',  ( -1.000000000000000000, -0.0000000000000000000, -0.0000000000000000000 ) ) ;
#18 = FACE_OUTER_BOUND ( 'NONE', #226, .T. ) ;
#19 = AXIS2_PLACEMENT_3D ( 'NONE', #190, #137, #217 ) ;
#20 = CARTESIAN_POINT ( 'NONE',  ( 700.7089566504703300, 0.0000000000000000000, 0.0000000000000000000 ) ) ;
#21 = ORIENTED_EDGE ( 'NONE', *, *, #324, .F. ) ;
#22 = SURFACE_STYLE_FILL_AREA ( #194 ) ;
#23 = CARTESIAN_POINT ( 'NONE',  ( 302.6596035546512600, 0.0000000000000000000, 0.0000000000000000000 ) ) ;
#24 = DIRECTION ( 'NONE',  ( 0.0000000000000000000, 0.0000000000000000000, 1.000000000000000000 ) ) ;
#25 = EDGE_CURVE ( 'NONE', #187, #342, #261, .T. ) ;
#26 = ADVANCED_FACE ( 'NONE', ( #239 ), #159, .F. ) ;
#27 = AXIS2_PLACEMENT_3D ( 'NONE', #88, #197, #225 ) ;
#28 = CARTESIAN_POINT ( 'NONE',  ( 299.1702487614347200, 0.0000000000000000000, 6.349999999999992500 ) ) ;
#29 = VECTOR ( 'NONE', #107, 1000.000000000000000 ) ;
#30 = CIRCLE ( 'NONE', #102, 40.40000000000000600 ) ;
#31 = AXIS2_PLACEMENT_3D ( 'NONE', #312, #140, #238 ) ;
#32 = AXIS2_PLACEMENT_3D ( 'NONE', #329, #12, #45 ) ;
#33 = DIRECTION ( 'NONE',  ( 0.0000000000000000000, 0.0000000000000000000, 1.000000000000000000 ) ) ;
#34 = DIRECTION ( 'NONE',  ( -1.000000000000000000, -0.0000000000000000000, -0.0000000000000000000 ) ) ;
#35 = DIRECTION ( 'NONE',  ( 0.0000000000000000000, 0.0000000000000000000, 1.000000000000000000 ) ) ;
#36 = CARTESIAN_POINT ( 'NONE',  ( 302.6089566504702500, 0.0000000000000000000, -2.437659453702806500E-014 ) ) ;
#37 = FILL_AREA_STYLE ('',( #213 ) ) ;
#38 =( GEOMETRIC_REPRESENTATION_CONTEXT ( 3 ) GLOBAL_UNCERTAINTY_ASSIGNED_CONTEXT ( ( #53 ) ) GLOBAL_UNIT_ASSIGNED_CONTEXT ( ( #295, #270, #104 ) ) REPRESENTATION_CONTEXT ( 'NONE', 'WORKASPACE' ) );
#39 = CARTESIAN_POINT ( 'NONE',  ( 124.5233095260452400, 0.0000000000000000000, 6.349999999999996100 ) ) ;
#40 = COLOUR_RGB ( '',1.000000000000000000, 1.000000000000000000, 1.000000000000000000 ) ;
#41 = ORIENTED_EDGE ( 'NONE', *, *, #347, .F. ) ;
#42 = PRODUCT_DEFINITION ( 'Î´Öª', '', #14, #335 ) ;
#43 = DIRECTION ( 'NONE',  ( 0.0000000000000000000, 0.0000000000000000000, 1.000000000000000000 ) ) ;
#44 =( NAMED_UNIT ( * ) PLANE_ANGLE_UNIT ( ) SI_UNIT ( $, .RADIAN. ) );
#45 = DIRECTION ( 'NONE',  ( 1.000000000000000000, 0.0000000000000000000, 0.0000000000000000000 ) ) ;
#46 = DIRECTION ( 'NONE',  ( 0.0000000000000000000, 0.0000000000000000000, 1.000000000000000000 ) ) ;
#47 = AXIS2_PLACEMENT_3D ( 'NONE', #237, #112, #43 ) ;
#48 = FACE_OUTER_BOUND ( 'NONE', #16, .T. ) ;
#49 = ORIENTED_EDGE ( 'NONE', *, *, #257, .F. ) ;
#50 = ADVANCED_FACE ( 'NONE', ( #220 ), #3, .T. ) ;
#51 = DIRECTION ( 'NONE',  ( 0.0000000000000000000, 1.000000000000000000, 0.0000000000000000000 ) ) ;
#52 = VERTEX_POINT ( 'NONE', #296 ) ;
#53 = UNCERTAINTY_MEASURE_WITH_UNIT (LENGTH_MEASURE( 1.000000000000000100E-005 ), #295, 'distance_accuracy_value', 'NONE');
#54 = DIRECTION ( 'NONE',  ( 0.0000000000000000000, 0.0000000000000000000, 1.000000000000000000 ) ) ;
#55 = AXIS2_PLACEMENT_3D ( 'NONE', #59, #208, #33 ) ;
#56 = PRESENTATION_LAYER_ASSIGNMENT (  '', '', ( #302 ) ) ;
#57 = EDGE_LOOP ( 'NONE', ( #247, #268, #216 ) ) ;
#58 = CIRCLE ( 'NONE', #180, 6.349999999999999600 ) ;
#59 = CARTESIAN_POINT ( 'NONE',  ( 300.6067949377759900, 0.0000000000000000000, 0.0000000000000000000 ) ) ;
#60 = LINE ( 'NONE', #144, #85 ) ;
#61 = CARTESIAN_POINT ( 'NONE',  ( 302.6596035546512600, 7.776507174585693100E-016, -6.349999999999999600 ) ) ;
#62 = DIRECTION ( 'NONE',  ( -0.0000000000000000000, 1.000000000000000000, 1.224646799147353200E-016 ) ) ;
#63 = ORIENTED_EDGE ( 'NONE', *, *, #242, .F. ) ;
#64 = PRODUCT ( '145113', '145113', '', ( #319 ) ) ;
#65 = UNCERTAINTY_MEASURE_WITH_UNIT (LENGTH_MEASURE( 1.000000000000000100E-005 ), #150, 'distance_accuracy_value', 'NONE');
#66 = DIRECTION ( 'NONE',  ( 0.0000000000000000000, 0.0000000000000000000, -1.000000000000000000 ) ) ;
#67 = CIRCLE ( 'NONE', #311, 6.349999999999996100 ) ;
#68 = MECHANICAL_DESIGN_GEOMETRIC_PRESENTATION_REPRESENTATION (  '', ( #243 ), #188 ) ;
#69 = CIRCLE ( 'NONE', #155, 40.40000000000002000 ) ;
#70 = ORIENTED_EDGE ( 'NONE', *, *, #6, .F. ) ;
#71 = VERTEX_POINT ( 'NONE', #195 ) ;
#72 = SPHERICAL_SURFACE ( 'NONE', #277, 40.40000000000001300 ) ;
#73 = CARTESIAN_POINT ( 'NONE',  ( 260.7089566504702100, 0.0000000000000000000, -3.469446951953614200E-015 ) ) ;
#74 = VERTEX_POINT ( 'NONE', #231 ) ;
#75 = ORIENTED_EDGE ( 'NONE', *, *, #209, .F. ) ;
#76 = DIRECTION ( 'NONE',  ( -1.000000000000000000, -0.0000000000000000000, -0.0000000000000000000 ) ) ;
#77 = CLOSED_SHELL ( 'NONE', ( #26, #81, #203, #230, #50, #157 ) ) ;
#78 = DIRECTION ( 'NONE',  ( 0.0000000000000000000, -1.224646799147353200E-016, 1.000000000000000000 ) ) ;
#79 = VERTEX_POINT ( 'NONE', #341 ) ;
#80 = FACE_OUTER_BOUND ( 'NONE', #265, .T. ) ;
#81 = ADVANCED_FACE ( 'NONE', ( #80 ), #235, .T. ) ;
#82 = CARTESIAN_POINT ( 'NONE',  ( 301.1089566504701900, 0.0000000000000000000, -9.956604176759601700E-016 ) ) ;
#83 = EDGE_CURVE ( 'NONE', #187, #322, #67, .T. ) ;
#84 = EDGE_CURVE ( 'NONE', #178, #74, #346, .T. ) ;
#85 = VECTOR ( 'NONE', #210, 1000.000000000000000 ) ;
#86 = SURFACE_STYLE_FILL_AREA ( #37 ) ;
#87 = STYLED_ITEM ( 'NONE', ( #143 ), #192 ) ;
#88 = CARTESIAN_POINT ( 'NONE',  ( -0.5519199926577972300, 0.0000000000000000000, 0.0000000000000000000 ) ) ;
#89 = ORIENTED_EDGE ( 'NONE', *, *, #258, .F. ) ;
#90 = APPLICATION_CONTEXT ( 'automotive_design' ) ;
#91 = FACE_OUTER_BOUND ( 'NONE', #313, .T. ) ;
#92 = CARTESIAN_POINT ( 'NONE',  ( 299.1702487614347200, 7.776507174585685300E-016, -6.349999999999997000 ) ) ;
#93 = PRESENTATION_STYLE_ASSIGNMENT (( #267 ) ) ;
#94 = EDGE_CURVE ( 'NONE', #131, #79, #110, .T. ) ;
#95 = ORIENTED_EDGE ( 'NONE', *, *, #222, .F. ) ;
#96 = DIRECTION ( 'NONE',  ( 0.0000000000000000000, 1.000000000000000000, 0.0000000000000000000 ) ) ;
#97 = AXIS2_PLACEMENT_3D ( 'NONE', #204, #279, #163 ) ;
#98 = CARTESIAN_POINT ( 'NONE',  ( 299.1702487614347200, 0.0000000000000000000, 0.0000000000000000000 ) ) ;
#99 = APPLICATION_CONTEXT ( 'automotive_design' ) ;
#100 =( NAMED_UNIT ( * ) SI_UNIT ( $, .STERADIAN. ) SOLID_ANGLE_UNIT ( ) );
#101 = ORIENTED_EDGE ( 'NONE', *, *, #141, .T. ) ;
#102 = AXIS2_PLACEMENT_3D ( 'NONE', #115, #269, #142 ) ;
#103 = DIRECTION ( 'NONE',  ( -1.000000000000000000, -0.0000000000000000000, -0.0000000000000000000 ) ) ;
#104 =( NAMED_UNIT ( * ) SI_UNIT ( $, .STERADIAN. ) SOLID_ANGLE_UNIT ( ) );
#105 = AXIS2_PLACEMENT_3D ( 'NONE', #23, #103, #334 ) ;
#106 = ADVANCED_FACE ( 'NONE', ( #146 ), #173, .T. ) ;
#107 = DIRECTION ( 'NONE',  ( -1.000000000000000000, -0.0000000000000000000, -0.0000000000000000000 ) ) ;
#108 = AXIS2_PLACEMENT_3D ( 'NONE', #229, #221, #78 ) ;
#109 = COLOUR_RGB ( '',1.000000000000000000, 1.000000000000000000, 1.000000000000000000 ) ;
#110 = CIRCLE ( 'NONE', #214, 6.350000000000005000 ) ;
#111 =( LENGTH_UNIT ( ) NAMED_UNIT ( * ) SI_UNIT ( .MILLI., .METRE. ) );
#112 = DIRECTION ( 'NONE',  ( 0.0000000000000000000, 1.000000000000000000, 0.0000000000000000000 ) ) ;
#113 = APPLICATION_PROTOCOL_DEFINITION ( 'draft international standard', 'automotive_design', 1998, #90 ) ;
#114 = EDGE_LOOP ( 'NONE', ( #345, #255, #70, #123 ) ) ;
#115 = CARTESIAN_POINT ( 'NONE',  ( 260.7089566504702100, 0.0000000000000000000, -3.469446951953614200E-015 ) ) ;
#116 = PRESENTATION_LAYER_ASSIGNMENT (  '', '', ( #243 ) ) ;
#117 = SURFACE_STYLE_USAGE ( .BOTH. , #294 ) ;
#118 = EDGE_CURVE ( 'NONE', #298, #178, #30, .T. ) ;
#119 = ORIENTED_EDGE ( 'NONE', *, *, #83, .T. ) ;
#120 = SPHERICAL_SURFACE ( 'NONE', #161, 40.40000000000001300 ) ;
#121 = DIRECTION ( 'NONE',  ( 0.0000000000000000000, -1.000000000000000000, -1.224646799147353200E-016 ) ) ;
#122 = SURFACE_STYLE_USAGE ( .BOTH. , #193 ) ;
#123 = ORIENTED_EDGE ( 'NONE', *, *, #224, .F. ) ;
#124 = SPHERICAL_SURFACE ( 'NONE', #308, 398.1000000000000200 ) ;
#125 =( NAMED_UNIT ( * ) PLANE_ANGLE_UNIT ( ) SI_UNIT ( $, .RADIAN. ) );
#126 = UNCERTAINTY_MEASURE_WITH_UNIT (LENGTH_MEASURE( 1.000000000000000100E-005 ), #307, 'distance_accuracy_value', 'NONE');
#127 = FILL_AREA_STYLE_COLOUR ( '', #109 ) ;
#128 = AXIS2_PLACEMENT_3D ( 'NONE', #291, #176, #24 ) ;
#129 = CARTESIAN_POINT ( 'NONE',  ( 300.6067949377759900, 0.0000000000000000000, 0.0000000000000000000 ) ) ;
#130 = CIRCLE ( 'NONE', #314, 6.350000000000005000 ) ;
#131 = VERTEX_POINT ( 'NONE', #264 ) ;
#132 = ORIENTED_EDGE ( 'NONE', *, *, #6, .T. ) ;
#133 = DIRECTION ( 'NONE',  ( 0.0000000000000000000, 0.0000000000000000000, 1.000000000000000000 ) ) ;
#134 = AXIS2_PLACEMENT_3D ( 'NONE', #129, #17, #199 ) ;
#135 = DIRECTION ( 'NONE',  ( 0.0000000000000000000, 0.0000000000000000000, 1.000000000000000000 ) ) ;
#136 = SPHERICAL_SURFACE ( 'NONE', #47, 36.20000000000001700 ) ;
#137 = DIRECTION ( 'NONE',  ( -1.000000000000000000, -0.0000000000000000000, -0.0000000000000000000 ) ) ;
#138 = CARTESIAN_POINT ( 'NONE',  ( 260.7089566504702100, 0.0000000000000000000, -3.469446951953614200E-015 ) ) ;
#139 = EDGE_CURVE ( 'NONE', #52, #79, #206, .T. ) ;
#140 = DIRECTION ( 'NONE',  ( -1.000000000000000000, -0.0000000000000000000, -0.0000000000000000000 ) ) ;
#141 = EDGE_CURVE ( 'NONE', #169, #227, #168, .T. ) ;
#142 = DIRECTION ( 'NONE',  ( 0.0000000000000000000, -1.224646799147353200E-016, 1.000000000000000000 ) ) ;
#143 = PRESENTATION_STYLE_ASSIGNMENT (( #122 ) ) ;
#144 = CARTESIAN_POINT ( 'NONE',  ( -0.5519199926577972300, 0.0000000000000000000, 6.350000000000002300 ) ) ;
#145 = MECHANICAL_DESIGN_GEOMETRIC_PRESENTATION_REPRESENTATION (  '', ( #302 ), #38 ) ;
#146 = FACE_OUTER_BOUND ( 'NONE', #5, .T. ) ;
#147 = LINE ( 'NONE', #196, #182 ) ;
#148 = CARTESIAN_POINT ( 'NONE',  ( 299.1702487614347200, 0.0000000000000000000, 0.0000000000000000000 ) ) ;
#149 = ORIENTED_EDGE ( 'NONE', *, *, #330, .T. ) ;
#150 =( LENGTH_UNIT ( ) NAMED_UNIT ( * ) SI_UNIT ( .MILLI., .METRE. ) );
#151 = DIRECTION ( 'NONE',  ( 0.0000000000000000000, 1.224646799147353200E-016, -1.000000000000000000 ) ) ;
#152 = EDGE_CURVE ( 'NONE', #71, #169, #58, .T. ) ;
#153 = CARTESIAN_POINT ( 'NONE',  ( -0.5519199926577972300, 7.776507174585695100E-016, -6.350000000000002300 ) ) ;
#154 = AXIS2_PLACEMENT_3D ( 'NONE', #20, #183, #316 ) ;
#155 = AXIS2_PLACEMENT_3D ( 'NONE', #249, #223, #66 ) ;
#156 = SURFACE_SIDE_STYLE ('',( #262 ) ) ;
#157 = ADVANCED_FACE ( 'NONE', ( #48 ), #124, .F. ) ;
#158 = EDGE_LOOP ( 'NONE', ( #165, #286, #331 ) ) ;
#159 = SPHERICAL_SURFACE ( 'NONE', #154, 398.1000000000000200 ) ;
#160 = CIRCLE ( 'NONE', #283, 6.349999999999996100 ) ;
#161 = AXIS2_PLACEMENT_3D ( 'NONE', #4, #328, #35 ) ;
#162 =( NAMED_UNIT ( * ) PLANE_ANGLE_UNIT ( ) SI_UNIT ( $, .RADIAN. ) );
#163 = DIRECTION ( 'NONE',  ( 0.0000000000000000000, 0.0000000000000000000, -1.000000000000000000 ) ) ;
#164 = ORIENTED_EDGE ( 'NONE', *, *, #152, .T. ) ;
#165 = ORIENTED_EDGE ( 'NONE', *, *, #118, .F. ) ;
#166 = FILL_AREA_STYLE ('',( #127 ) ) ;
#167 = CARTESIAN_POINT ( 'NONE',  ( 700.7089566504703300, 0.0000000000000000000, 0.0000000000000000000 ) ) ;
#168 = CIRCLE ( 'NONE', #128, 398.1000000000000200 ) ;
#169 = VERTEX_POINT ( 'NONE', #61 ) ;
#170 = PRESENTATION_LAYER_ASSIGNMENT (  '', '', ( #87 ) ) ;
#171 = FILL_AREA_STYLE_COLOUR ( '', #304 ) ;
#172 = FACE_OUTER_BOUND ( 'NONE', #260, .T. ) ;
#173 = CYLINDRICAL_SURFACE ( 'NONE', #31, 6.349999999999996100 ) ;
#174 = CYLINDRICAL_SURFACE ( 'NONE', #19, 6.349999999999996100 ) ;
#175 = CARTESIAN_POINT ( 'NONE',  ( 260.7089566504702100, 0.0000000000000000000, -3.469446951953614200E-015 ) ) ;
#176 = DIRECTION ( 'NONE',  ( 0.0000000000000000000, 1.000000000000000000, -0.0000000000000000000 ) ) ;
#177 = ADVANCED_FACE ( 'NONE', ( #91 ), #72, .T. ) ;
#178 = VERTEX_POINT ( 'NONE', #212 ) ;
#179 = ORIENTED_EDGE ( 'NONE', *, *, #209, .T. ) ;
#180 = AXIS2_PLACEMENT_3D ( 'NONE', #321, #232, #54 ) ;
#181 = CARTESIAN_POINT ( 'NONE',  ( 260.7089566504702100, 0.0000000000000000000, -3.469446951953614200E-015 ) ) ;
#182 = VECTOR ( 'NONE', #254, 1000.000000000000000 ) ;
#183 = DIRECTION ( 'NONE',  ( -0.0000000000000000000, -1.000000000000000000, -0.0000000000000000000 ) ) ;
#184 = AXIS2_PLACEMENT_3D ( 'NONE', #248, #309, #133 ) ;
#185 = DIRECTION ( 'NONE',  ( 0.0000000000000000000, 0.0000000000000000000, 1.000000000000000000 ) ) ;
#186 = DIRECTION ( 'NONE',  ( -1.000000000000000000, -0.0000000000000000000, -0.0000000000000000000 ) ) ;
#187 = VERTEX_POINT ( 'NONE', #92 ) ;
#188 =( GEOMETRIC_REPRESENTATION_CONTEXT ( 3 ) GLOBAL_UNCERTAINTY_ASSIGNED_CONTEXT ( ( #65 ) ) GLOBAL_UNIT_ASSIGNED_CONTEXT ( ( #150, #125, #300 ) ) REPRESENTATION_CONTEXT ( 'NONE', 'WORKASPACE' ) );
#189 = ORIENTED_EDGE ( 'NONE', *, *, #83, .F. ) ;
#190 = CARTESIAN_POINT ( 'NONE',  ( 124.5233095260452400, 0.0000000000000000000, 0.0000000000000000000 ) ) ;
#191 = PRESENTATION_STYLE_ASSIGNMENT (( #117 ) ) ;
#192 = MANIFOLD_SOLID_BREP ( 'Ðý×ª1', #2 ) ;
#193 = SURFACE_SIDE_STYLE ('',( #86 ) ) ;
#194 = FILL_AREA_STYLE ('',( #171 ) ) ;
#195 = CARTESIAN_POINT ( 'NONE',  ( 302.6596035546512600, 0.0000000000000000000, 6.349999999999999600 ) ) ;
#196 = CARTESIAN_POINT ( 'NONE',  ( 124.5233095260452400, 7.776507174585689200E-016, -6.349999999999996100 ) ) ;
#197 = DIRECTION ( 'NONE',  ( -1.000000000000000000, -0.0000000000000000000, -0.0000000000000000000 ) ) ;
#198 = SHAPE_DEFINITION_REPRESENTATION ( #284, #246 ) ;
#199 = DIRECTION ( 'NONE',  ( 0.0000000000000000000, 0.0000000000000000000, 1.000000000000000000 ) ) ;
#200 = ORIENTED_EDGE ( 'NONE', *, *, #8, .T. ) ;
#201 = ORIENTED_EDGE ( 'NONE', *, *, #118, .T. ) ;
#202 = ORIENTED_EDGE ( 'NONE', *, *, #139, .F. ) ;
#203 = ADVANCED_FACE ( 'NONE', ( #251 ), #205, .F. ) ;
#204 = CARTESIAN_POINT ( 'NONE',  ( 260.7089566504702100, 0.0000000000000000000, -3.469446951953614200E-015 ) ) ;
#205 = SPHERICAL_SURFACE ( 'NONE', #274, 40.40000000000001300 ) ;
#206 = CIRCLE ( 'NONE', #306, 40.40000000000000600 ) ;
#207 = CARTESIAN_POINT ( 'NONE',  ( 298.6089566504701900, 0.0000000000000000000, -1.747140945453508700E-015 ) ) ;
#208 = DIRECTION ( 'NONE',  ( -1.000000000000000000, -0.0000000000000000000, -0.0000000000000000000 ) ) ;
#209 = EDGE_CURVE ( 'NONE', #52, #131, #281, .T. ) ;
#210 = DIRECTION ( 'NONE',  ( -1.000000000000000000, -0.0000000000000000000, -0.0000000000000000000 ) ) ;
#211 = DIRECTION ( 'NONE',  ( 0.0000000000000000000, 1.000000000000000000, 0.0000000000000000000 ) ) ;
#212 = CARTESIAN_POINT ( 'NONE',  ( 300.6067949377759900, 7.776507174585688200E-016, -6.349999999999995200 ) ) ;
#213 = FILL_AREA_STYLE_COLOUR ( '', #40 ) ;
#214 = AXIS2_PLACEMENT_3D ( 'NONE', #292, #34, #297 ) ;
#215 = FACE_OUTER_BOUND ( 'NONE', #256, .T. ) ;
#216 = ORIENTED_EDGE ( 'NONE', *, *, #141, .F. ) ;
#217 = DIRECTION ( 'NONE',  ( 0.0000000000000000000, 0.0000000000000000000, 1.000000000000000000 ) ) ;
#218 = ORIENTED_EDGE ( 'NONE', *, *, #330, .F. ) ;
#219 =( GEOMETRIC_REPRESENTATION_CONTEXT ( 3 ) GLOBAL_UNCERTAINTY_ASSIGNED_CONTEXT ( ( #1 ) ) GLOBAL_UNIT_ASSIGNED_CONTEXT ( ( #111, #162, #11 ) ) REPRESENTATION_CONTEXT ( 'NONE', 'WORKASPACE' ) );
#220 = FACE_OUTER_BOUND ( 'NONE', #320, .T. ) ;
#221 = DIRECTION ( 'NONE',  ( -0.0000000000000000000, 1.000000000000000000, 1.224646799147353200E-016 ) ) ;
#222 = EDGE_CURVE ( 'NONE', #178, #187, #147, .T. ) ;
#223 = DIRECTION ( 'NONE',  ( 0.0000000000000000000, -1.000000000000000000, 0.0000000000000000000 ) ) ;
#224 = EDGE_CURVE ( 'NONE', #74, #322, #10, .T. ) ;
#225 = DIRECTION ( 'NONE',  ( 0.0000000000000000000, 0.0000000000000000000, 1.000000000000000000 ) ) ;
#226 = EDGE_LOOP ( 'NONE', ( #202, #179, #289 ) ) ;
#227 = VERTEX_POINT ( 'NONE', #36 ) ;
#228 = DIRECTION ( 'NONE',  ( -0.0000000000000000000, -1.000000000000000000, -0.0000000000000000000 ) ) ;
#229 = CARTESIAN_POINT ( 'NONE',  ( 334.8089566504702400, 0.0000000000000000000, -3.963751651910219100E-015 ) ) ;
#230 = ADVANCED_FACE ( 'NONE', ( #18 ), #336, .F. ) ;
#231 = CARTESIAN_POINT ( 'NONE',  ( 300.6067949377759900, 0.0000000000000000000, 6.349999999999995200 ) ) ;
#232 = DIRECTION ( 'NONE',  ( -1.000000000000000000, -0.0000000000000000000, -0.0000000000000000000 ) ) ;
#233 = SPHERICAL_SURFACE ( 'NONE', #253, 36.20000000000001700 ) ;
#234 = AXIS2_PLACEMENT_3D ( 'NONE', #175, #51, #185 ) ;
#235 = CYLINDRICAL_SURFACE ( 'NONE', #184, 6.350000000000002300 ) ;
#236 = DIRECTION ( 'NONE',  ( 0.0000000000000000000, 0.0000000000000000000, -1.000000000000000000 ) ) ;
#237 = CARTESIAN_POINT ( 'NONE',  ( 334.8089566504702400, 0.0000000000000000000, -3.963751651910219100E-015 ) ) ;
#238 = DIRECTION ( 'NONE',  ( 0.0000000000000000000, 0.0000000000000000000, 1.000000000000000000 ) ) ;
#239 = FACE_OUTER_BOUND ( 'NONE', #57, .T. ) ;
#240 = CIRCLE ( 'NONE', #263, 36.20000000000001700 ) ;
#241 = DIRECTION ( 'NONE',  ( 0.0000000000000000000, 1.000000000000000000, 0.0000000000000000000 ) ) ;
#242 = EDGE_CURVE ( 'NONE', #71, #131, #60, .T. ) ;
#243 = STYLED_ITEM ( 'NONE', ( #93 ), #303 ) ;
#244 = DIRECTION ( 'NONE',  ( 0.0000000000000000000, 0.0000000000000000000, 1.000000000000000000 ) ) ;
#245 = VECTOR ( 'NONE', #293, 1000.000000000000000 ) ;
#246 = ADVANCED_BREP_SHAPE_REPRESENTATION ( '145113', ( #192, #303, #32 ), #288 ) ;
#247 = ORIENTED_EDGE ( 'NONE', *, *, #152, .F. ) ;
#248 = CARTESIAN_POINT ( 'NONE',  ( -0.5519199926577972300, 0.0000000000000000000, 0.0000000000000000000 ) ) ;
#249 = CARTESIAN_POINT ( 'NONE',  ( 260.7089566504702100, 0.0000000000000000000, -3.469446951953614200E-015 ) ) ;
#250 = ORIENTED_EDGE ( 'NONE', *, *, #8, .F. ) ;
#251 = FACE_OUTER_BOUND ( 'NONE', #333, .T. ) ;
#252 = EDGE_CURVE ( 'NONE', #71, #227, #299, .T. ) ;
#253 = AXIS2_PLACEMENT_3D ( 'NONE', #318, #241, #46 ) ;
#254 = DIRECTION ( 'NONE',  ( -1.000000000000000000, -0.0000000000000000000, -0.0000000000000000000 ) ) ;
#255 = ORIENTED_EDGE ( 'NONE', *, *, #222, .T. ) ;
#256 = EDGE_LOOP ( 'NONE', ( #132, #272, #250 ) ) ;
#257 = EDGE_CURVE ( 'NONE', #74, #178, #273, .T. ) ;
#258 = EDGE_CURVE ( 'NONE', #79, #131, #130, .T. ) ;
#259 = ADVANCED_FACE ( 'NONE', ( #172 ), #233, .T. ) ;
#260 = EDGE_LOOP ( 'NONE', ( #282, #119, #200 ) ) ;
#261 = CIRCLE ( 'NONE', #108, 36.20000000000001700 ) ;
#262 = SURFACE_STYLE_FILL_AREA ( #166 ) ;
#263 = AXIS2_PLACEMENT_3D ( 'NONE', #338, #323, #236 ) ;
#264 = CARTESIAN_POINT ( 'NONE',  ( 300.6067949377759900, 0.0000000000000000000, 6.350000000000006800 ) ) ;
#265 = EDGE_LOOP ( 'NONE', ( #164, #149, #301, #63 ) ) ;
#266 = ORIENTED_EDGE ( 'NONE', *, *, #84, .T. ) ;
#267 = SURFACE_STYLE_USAGE ( .BOTH. , #156 ) ;
#268 = ORIENTED_EDGE ( 'NONE', *, *, #252, .T. ) ;
#269 = DIRECTION ( 'NONE',  ( -0.0000000000000000000, 1.000000000000000000, 1.224646799147353200E-016 ) ) ;
#270 =( NAMED_UNIT ( * ) PLANE_ANGLE_UNIT ( ) SI_UNIT ( $, .RADIAN. ) );
#271 = PRODUCT_RELATED_PRODUCT_CATEGORY ( 'part', '', ( #64 ) ) ;
#272 = ORIENTED_EDGE ( 'NONE', *, *, #25, .T. ) ;
#273 = CIRCLE ( 'NONE', #134, 6.349999999999995200 ) ;
#274 = AXIS2_PLACEMENT_3D ( 'NONE', #73, #211, #13 ) ;
#275 = ORIENTED_EDGE ( 'NONE', *, *, #252, .F. ) ;
#276 = ORIENTED_EDGE ( 'NONE', *, *, #139, .T. ) ;
#277 = AXIS2_PLACEMENT_3D ( 'NONE', #138, #96, #135 ) ;
#278 = CARTESIAN_POINT ( 'NONE',  ( 300.6067949377759900, 0.0000000000000000000, 0.0000000000000000000 ) ) ;
#279 = DIRECTION ( 'NONE',  ( 0.0000000000000000000, -1.000000000000000000, 0.0000000000000000000 ) ) ;
#280 = DIRECTION ( 'NONE',  ( -1.000000000000000000, -0.0000000000000000000, -0.0000000000000000000 ) ) ;
#281 = CIRCLE ( 'NONE', #97, 40.40000000000002000 ) ;
#282 = ORIENTED_EDGE ( 'NONE', *, *, #25, .F. ) ;
#283 = AXIS2_PLACEMENT_3D ( 'NONE', #98, #186, #244 ) ;
#284 = PRODUCT_DEFINITION_SHAPE ( 'NONE', 'NONE',  #42 ) ;
#285 = ADVANCED_FACE ( 'NONE', ( #344 ), #120, .T. ) ;
#286 = ORIENTED_EDGE ( 'NONE', *, *, #347, .T. ) ;
#287 = CIRCLE ( 'NONE', #105, 6.349999999999999600 ) ;
#288 =( GEOMETRIC_REPRESENTATION_CONTEXT ( 3 ) GLOBAL_UNCERTAINTY_ASSIGNED_CONTEXT ( ( #126 ) ) GLOBAL_UNIT_ASSIGNED_CONTEXT ( ( #307, #44, #100 ) ) REPRESENTATION_CONTEXT ( 'NONE', 'WORKASPACE' ) );
#289 = ORIENTED_EDGE ( 'NONE', *, *, #94, .T. ) ;
#290 = MECHANICAL_DESIGN_GEOMETRIC_PRESENTATION_REPRESENTATION (  '', ( #87 ), #219 ) ;
#291 = CARTESIAN_POINT ( 'NONE',  ( 700.7089566504703300, 0.0000000000000000000, 0.0000000000000000000 ) ) ;
#292 = CARTESIAN_POINT ( 'NONE',  ( 300.6067949377759900, 0.0000000000000000000, 0.0000000000000000000 ) ) ;
#293 = DIRECTION ( 'NONE',  ( -1.000000000000000000, -0.0000000000000000000, -0.0000000000000000000 ) ) ;
#294 = SURFACE_SIDE_STYLE ('',( #22 ) ) ;
#295 =( LENGTH_UNIT ( ) NAMED_UNIT ( * ) SI_UNIT ( .MILLI., .METRE. ) );
#296 = CARTESIAN_POINT ( 'NONE',  ( 301.1089566504701900, 0.0000000000000000000, -9.956604176759601700E-016 ) ) ;
#297 = DIRECTION ( 'NONE',  ( 0.0000000000000000000, 0.0000000000000000000, 1.000000000000000000 ) ) ;
#298 = VERTEX_POINT ( 'NONE', #82 ) ;
#299 = CIRCLE ( 'NONE', #332, 398.1000000000000200 ) ;
#300 =( NAMED_UNIT ( * ) SI_UNIT ( $, .STERADIAN. ) SOLID_ANGLE_UNIT ( ) );
#301 = ORIENTED_EDGE ( 'NONE', *, *, #94, .F. ) ;
#302 = STYLED_ITEM ( 'NONE', ( #191 ), #246 ) ;
#303 = MANIFOLD_SOLID_BREP ( 'Ðý×ª3', #77 ) ;
#304 = COLOUR_RGB ( '',1.000000000000000000, 1.000000000000000000, 1.000000000000000000 ) ;
#305 = DIRECTION ( 'NONE',  ( 0.0000000000000000000, -1.224646799147353200E-016, 1.000000000000000000 ) ) ;
#306 = AXIS2_PLACEMENT_3D ( 'NONE', #181, #62, #305 ) ;
#307 =( LENGTH_UNIT ( ) NAMED_UNIT ( * ) SI_UNIT ( .MILLI., .METRE. ) );
#308 = AXIS2_PLACEMENT_3D ( 'NONE', #167, #228, #9 ) ;
#309 = DIRECTION ( 'NONE',  ( -1.000000000000000000, -0.0000000000000000000, -0.0000000000000000000 ) ) ;
#310 = ADVANCED_FACE ( 'NONE', ( #215 ), #136, .T. ) ;
#311 = AXIS2_PLACEMENT_3D ( 'NONE', #148, #280, #315 ) ;
#312 = CARTESIAN_POINT ( 'NONE',  ( 124.5233095260452400, 0.0000000000000000000, 0.0000000000000000000 ) ) ;
#313 = EDGE_LOOP ( 'NONE', ( #41, #201, #49 ) ) ;
#314 = AXIS2_PLACEMENT_3D ( 'NONE', #278, #76, #15 ) ;
#315 = DIRECTION ( 'NONE',  ( 0.0000000000000000000, 0.0000000000000000000, 1.000000000000000000 ) ) ;
#316 = DIRECTION ( 'NONE',  ( 0.0000000000000000000, 0.0000000000000000000, -1.000000000000000000 ) ) ;
#317 = APPLICATION_PROTOCOL_DEFINITION ( 'draft international standard', 'automotive_design', 1998, #99 ) ;
#318 = CARTESIAN_POINT ( 'NONE',  ( 334.8089566504702400, 0.0000000000000000000, -3.963751651910219100E-015 ) ) ;
#319 = PRODUCT_CONTEXT ( 'NONE', #90, 'mechanical' ) ;
#320 = EDGE_LOOP ( 'NONE', ( #218, #7, #327, #89 ) ) ;
#321 = CARTESIAN_POINT ( 'NONE',  ( 302.6596035546512600, 0.0000000000000000000, 0.0000000000000000000 ) ) ;
#322 = VERTEX_POINT ( 'NONE', #28 ) ;
#323 = DIRECTION ( 'NONE',  ( 0.0000000000000000000, -1.000000000000000000, 0.0000000000000000000 ) ) ;
#324 = EDGE_CURVE ( 'NONE', #169, #71, #287, .T. ) ;
#325 = ORIENTED_EDGE ( 'NONE', *, *, #224, .T. ) ;
#326 = LINE ( 'NONE', #153, #245 ) ;
#327 = ORIENTED_EDGE ( 'NONE', *, *, #242, .T. ) ;
#328 = DIRECTION ( 'NONE',  ( 0.0000000000000000000, 1.000000000000000000, 0.0000000000000000000 ) ) ;
#329 = CARTESIAN_POINT ( 'NONE',  ( 0.0000000000000000000, 0.0000000000000000000, 0.0000000000000000000 ) ) ;
#330 = EDGE_CURVE ( 'NONE', #169, #79, #326, .T. ) ;
#331 = ORIENTED_EDGE ( 'NONE', *, *, #84, .F. ) ;
#332 = AXIS2_PLACEMENT_3D ( 'NONE', #340, #121, #151 ) ;
#333 = EDGE_LOOP ( 'NONE', ( #75, #276, #337 ) ) ;
#334 = DIRECTION ( 'NONE',  ( 0.0000000000000000000, 0.0000000000000000000, 1.000000000000000000 ) ) ;
#335 = PRODUCT_DEFINITION_CONTEXT ( 'detailed design', #99, 'design' ) ;
#336 = SPHERICAL_SURFACE ( 'NONE', #234, 40.40000000000001300 ) ;
#337 = ORIENTED_EDGE ( 'NONE', *, *, #258, .T. ) ;
#338 = CARTESIAN_POINT ( 'NONE',  ( 334.8089566504702400, 0.0000000000000000000, -3.963751651910219100E-015 ) ) ;
#339 = FACE_OUTER_BOUND ( 'NONE', #114, .T. ) ;
#340 = CARTESIAN_POINT ( 'NONE',  ( 700.7089566504703300, 0.0000000000000000000, 0.0000000000000000000 ) ) ;
#341 = CARTESIAN_POINT ( 'NONE',  ( 300.6067949377759900, 7.776507174585700100E-016, -6.350000000000010300 ) ) ;
#342 = VERTEX_POINT ( 'NONE', #207 ) ;
#343 = ADVANCED_FACE ( 'NONE', ( #339 ), #174, .T. ) ;
#344 = FACE_OUTER_BOUND ( 'NONE', #158, .T. ) ;
#345 = ORIENTED_EDGE ( 'NONE', *, *, #257, .T. ) ;
#346 = CIRCLE ( 'NONE', #55, 6.349999999999995200 ) ;
#347 = EDGE_CURVE ( 'NONE', #298, #74, #69, .T. ) ;
ENDSEC;
END-ISO-10303-21;
