ISO-10303-21;
HEADER;
FILE_DESCRIPTION (( 'STEP AP214' ),
    '1' );
FILE_NAME ('145106.STEP',
    '2019-05-29T03:30:29',
    ( 'user' ),
    ( 'Î¢ÈíÖÐ¹ú' ),
    'SwSTEP 2.0',
    'SolidWorks 2016',
    '' );
FILE_SCHEMA (( 'AUTOMOTIVE_DESIGN' ));
ENDSEC;

DATA;
#1 = DIRECTION ( 'NONE',  ( -1.000000000000000000, -0.0000000000000000000, -0.0000000000000000000 ) ) ;
#2 = DIRECTION ( 'NONE',  ( 0.0000000000000000000, 0.0000000000000000000, 1.000000000000000000 ) ) ;
#3 = FACE_OUTER_BOUND ( 'NONE', #268, .T. ) ;
#4 = DIRECTION ( 'NONE',  ( 0.0000000000000000000, 0.0000000000000000000, 1.000000000000000000 ) ) ;
#5 = AXIS2_PLACEMENT_3D ( 'NONE', #336, #258, #302 ) ;
#6 = ORIENTED_EDGE ( 'NONE', *, *, #34, .F. ) ;
#7 = CIRCLE ( 'NONE', #271, 4.000000000000000000 ) ;
#8 = ORIENTED_EDGE ( 'NONE', *, *, #151, .F. ) ;
#9 = SPHERICAL_SURFACE ( 'NONE', #187, 7.600000000000029800 ) ;
#10 = ORIENTED_EDGE ( 'NONE', *, *, #97, .T. ) ;
#11 = CARTESIAN_POINT ( 'NONE',  ( 261.0641299481270000, 0.0000000000000000000, -4.744368310488125200E-016 ) ) ;
#12 = ADVANCED_FACE ( 'NONE', ( #50 ), #39, .T. ) ;
#13 = EDGE_CURVE ( 'NONE', #199, #285, #104, .T. ) ;
#14 = ORIENTED_EDGE ( 'NONE', *, *, #54, .T. ) ;
#15 = CARTESIAN_POINT ( 'NONE',  ( 266.7015655681658500, 4.898587196589414800E-016, -4.000000000000001800 ) ) ;
#16 = PRODUCT_DEFINITION_SHAPE ( 'NONE', 'NONE',  #198 ) ;
#17 = SPHERICAL_SURFACE ( 'NONE', #162, 30.60000000000000500 ) ;
#18 = VERTEX_POINT ( 'NONE', #100 ) ;
#19 = AXIS2_PLACEMENT_3D ( 'NONE', #122, #119, #145 ) ;
#20 = CARTESIAN_POINT ( 'NONE',  ( 265.6641299481269700, 0.0000000000000000000, -1.927680672449224500E-016 ) ) ;
#21 = CIRCLE ( 'NONE', #103, 3.999999999999999100 ) ;
#22 = CARTESIAN_POINT ( 'NONE',  ( 261.0641299481270000, 0.0000000000000000000, -4.744368310488125200E-016 ) ) ;
#23 = STYLED_ITEM ( 'NONE', ( #317 ), #65 ) ;
#24 = SURFACE_SIDE_STYLE ('',( #182 ) ) ;
#25 =( NAMED_UNIT ( * ) SI_UNIT ( $, .STERADIAN. ) SOLID_ANGLE_UNIT ( ) );
#26 = EDGE_LOOP ( 'NONE', ( #109, #117, #67 ) ) ;
#27 = CARTESIAN_POINT ( 'NONE',  ( 262.3019321795655400, 0.0000000000000000000, 0.0000000000000000000 ) ) ;
#28 = DIRECTION ( 'NONE',  ( 0.0000000000000000000, 0.0000000000000000000, 1.000000000000000000 ) ) ;
#29 =( LENGTH_UNIT ( ) NAMED_UNIT ( * ) SI_UNIT ( .MILLI., .METRE. ) );
#30 = CARTESIAN_POINT ( 'NONE',  ( 124.5233095260452400, 0.0000000000000000000, 0.0000000000000000000 ) ) ;
#31 = EDGE_LOOP ( 'NONE', ( #172, #87, #6 ) ) ;
#32 = CARTESIAN_POINT ( 'NONE',  ( 236.3641299481269900, 0.0000000000000000000, 0.0000000000000000000 ) ) ;
#33 = ORIENTED_EDGE ( 'NONE', *, *, #97, .F. ) ;
#34 = EDGE_CURVE ( 'NONE', #164, #285, #110, .T. ) ;
#35 = AXIS2_PLACEMENT_3D ( 'NONE', #229, #177, #314 ) ;
#36 = CYLINDRICAL_SURFACE ( 'NONE', #329, 4.000000000000000000 ) ;
#37 = CLOSED_SHELL ( 'NONE', ( #113, #40, #68, #194, #138, #223 ) ) ;
#38 = PRESENTATION_LAYER_ASSIGNMENT (  '', '', ( #23 ) ) ;
#39 = CYLINDRICAL_SURFACE ( 'NONE', #196, 4.000000000000000000 ) ;
#40 = ADVANCED_FACE ( 'NONE', ( #189 ), #248, .T. ) ;
#41 = DIRECTION ( 'NONE',  ( 0.0000000000000000000, 1.000000000000000000, 0.0000000000000000000 ) ) ;
#42 = CARTESIAN_POINT ( 'NONE',  ( 236.3641299481269900, 0.0000000000000000000, 0.0000000000000000000 ) ) ;
#43 = CARTESIAN_POINT ( 'NONE',  ( 261.0641299481270000, 0.0000000000000000000, -4.744368310488125200E-016 ) ) ;
#44 = SPHERICAL_SURFACE ( 'NONE', #269, 4.599999999999981000 ) ;
#45 = ORIENTED_EDGE ( 'NONE', *, *, #69, .T. ) ;
#46 = CARTESIAN_POINT ( 'NONE',  ( -0.5519199926577972300, 4.898587196589412800E-016, -4.000000000000000000 ) ) ;
#47 = SURFACE_STYLE_FILL_AREA ( #96 ) ;
#48 = DIRECTION ( 'NONE',  ( -1.000000000000000000, -0.0000000000000000000, -0.0000000000000000000 ) ) ;
#49 = ORIENTED_EDGE ( 'NONE', *, *, #124, .F. ) ;
#50 = FACE_OUTER_BOUND ( 'NONE', #307, .T. ) ;
#51 = CARTESIAN_POINT ( 'NONE',  ( 263.3356932864470500, 0.0000000000000000000, 0.0000000000000000000 ) ) ;
#52 = DIRECTION ( 'NONE',  ( 0.0000000000000000000, 1.000000000000000000, 0.0000000000000000000 ) ) ;
#53 =( NAMED_UNIT ( * ) PLANE_ANGLE_UNIT ( ) SI_UNIT ( $, .RADIAN. ) );
#54 = EDGE_CURVE ( 'NONE', #18, #246, #99, .T. ) ;
#55 = DIRECTION ( 'NONE',  ( -1.000000000000000000, -0.0000000000000000000, -0.0000000000000000000 ) ) ;
#56 = CIRCLE ( 'NONE', #290, 4.599999999999981000 ) ;
#57 = ORIENTED_EDGE ( 'NONE', *, *, #69, .F. ) ;
#58 = DIRECTION ( 'NONE',  ( -1.000000000000000000, -0.0000000000000000000, -0.0000000000000000000 ) ) ;
#59 = SURFACE_SIDE_STYLE ('',( #202 ) ) ;
#60 = DIRECTION ( 'NONE',  ( 0.0000000000000000000, 0.0000000000000000000, -1.000000000000000000 ) ) ;
#61 = CARTESIAN_POINT ( 'NONE',  ( 261.0641299481270000, 0.0000000000000000000, -4.744368310488125200E-016 ) ) ;
#62 = DIRECTION ( 'NONE',  ( -1.000000000000000000, -0.0000000000000000000, -0.0000000000000000000 ) ) ;
#63 = AXIS2_PLACEMENT_3D ( 'NONE', #27, #345, #282 ) ;
#64 = ORIENTED_EDGE ( 'NONE', *, *, #190, .F. ) ;
#65 = ADVANCED_BREP_SHAPE_REPRESENTATION ( '145106', ( #83, #297, #181 ), #130 ) ;
#66 = VERTEX_POINT ( 'NONE', #195 ) ;
#67 = ORIENTED_EDGE ( 'NONE', *, *, #34, .T. ) ;
#68 = ADVANCED_FACE ( 'NONE', ( #107 ), #44, .F. ) ;
#69 = EDGE_CURVE ( 'NONE', #216, #95, #313, .T. ) ;
#70 = CARTESIAN_POINT ( 'NONE',  ( 261.0641299481270000, 0.0000000000000000000, -4.744368310488125200E-016 ) ) ;
#71 = ORIENTED_EDGE ( 'NONE', *, *, #209, .T. ) ;
#72 = AXIS2_PLACEMENT_3D ( 'NONE', #185, #81, #60 ) ;
#73 = DIRECTION ( 'NONE',  ( 0.0000000000000000000, -1.000000000000000000, 0.0000000000000000000 ) ) ;
#74 = EDGE_CURVE ( 'NONE', #66, #91, #167, .T. ) ;
#75 = CARTESIAN_POINT ( 'NONE',  ( 266.9641299481270400, 0.0000000000000000000, 1.873709602695450400E-015 ) ) ;
#76 = SURFACE_STYLE_USAGE ( .BOTH. , #264 ) ;
#77 = CIRCLE ( 'NONE', #325, 3.999999999999999100 ) ;
#78 = FILL_AREA_STYLE_COLOUR ( '', #108 ) ;
#79 = FILL_AREA_STYLE ('',( #288 ) ) ;
#80 = SPHERICAL_SURFACE ( 'NONE', #206, 4.599999999999981000 ) ;
#81 = DIRECTION ( 'NONE',  ( 0.0000000000000000000, -1.000000000000000000, 0.0000000000000000000 ) ) ;
#82 = DIRECTION ( 'NONE',  ( -0.0000000000000000000, -1.000000000000000000, -0.0000000000000000000 ) ) ;
#83 = MANIFOLD_SOLID_BREP ( 'Ðý×ª1', #240 ) ;
#84 = EDGE_LOOP ( 'NONE', ( #277, #256, #203 ) ) ;
#85 = EDGE_CURVE ( 'NONE', #246, #18, #7, .T. ) ;
#86 = VECTOR ( 'NONE', #244, 1000.000000000000000 ) ;
#87 = ORIENTED_EDGE ( 'NONE', *, *, #13, .T. ) ;
#88 = AXIS2_PLACEMENT_3D ( 'NONE', #169, #1, #144 ) ;
#89 = DIRECTION ( 'NONE',  ( 0.0000000000000000000, 0.0000000000000000000, 1.000000000000000000 ) ) ;
#90 = EDGE_CURVE ( 'NONE', #66, #161, #56, .T. ) ;
#91 = VERTEX_POINT ( 'NONE', #262 ) ;
#92 = DIRECTION ( 'NONE',  ( 0.0000000000000000000, 1.000000000000000000, -0.0000000000000000000 ) ) ;
#93 = DIRECTION ( 'NONE',  ( 0.0000000000000000000, -1.224646799147353000E-016, 1.000000000000000000 ) ) ;
#94 = APPLICATION_PROTOCOL_DEFINITION ( 'draft international standard', 'automotive_design', 1998, #280 ) ;
#95 = VERTEX_POINT ( 'NONE', #15 ) ;
#96 = FILL_AREA_STYLE ('',( #78 ) ) ;
#97 = EDGE_CURVE ( 'NONE', #216, #233, #276, .T. ) ;
#98 =( LENGTH_UNIT ( ) NAMED_UNIT ( * ) SI_UNIT ( .MILLI., .METRE. ) );
#99 = CIRCLE ( 'NONE', #234, 4.000000000000000000 ) ;
#100 = CARTESIAN_POINT ( 'NONE',  ( 263.3356932864470500, 4.898587196589412800E-016, -4.000000000000000000 ) ) ;
#101 = DIRECTION ( 'NONE',  ( 0.0000000000000000000, 0.0000000000000000000, 1.000000000000000000 ) ) ;
#102 = CYLINDRICAL_SURFACE ( 'NONE', #88, 4.000000000000000000 ) ;
#103 = AXIS2_PLACEMENT_3D ( 'NONE', #263, #207, #228 ) ;
#104 = CIRCLE ( 'NONE', #176, 7.600000000000029800 ) ;
#105 = EDGE_CURVE ( 'NONE', #161, #91, #77, .T. ) ;
#106 = MECHANICAL_DESIGN_GEOMETRIC_PRESENTATION_REPRESENTATION (  '', ( #23 ), #126 ) ;
#107 = FACE_OUTER_BOUND ( 'NONE', #219, .T. ) ;
#108 = COLOUR_RGB ( '',1.000000000000000000, 1.000000000000000000, 1.000000000000000000 ) ;
#109 = ORIENTED_EDGE ( 'NONE', *, *, #13, .F. ) ;
#110 = CIRCLE ( 'NONE', #158, 7.600000000000029800 ) ;
#111 = DIRECTION ( 'NONE',  ( 0.0000000000000000000, 0.0000000000000000000, 1.000000000000000000 ) ) ;
#112 = UNCERTAINTY_MEASURE_WITH_UNIT (LENGTH_MEASURE( 1.000000000000000100E-005 ), #98, 'distance_accuracy_value', 'NONE');
#113 = ADVANCED_FACE ( 'NONE', ( #141 ), #281, .T. ) ;
#114 = DIRECTION ( 'NONE',  ( 0.0000000000000000000, 0.0000000000000000000, 1.000000000000000000 ) ) ;
#115 = EDGE_CURVE ( 'NONE', #233, #95, #184, .T. ) ;
#116 = DIRECTION ( 'NONE',  ( -0.0000000000000000000, 1.000000000000000000, 1.224646799147353200E-016 ) ) ;
#117 = ORIENTED_EDGE ( 'NONE', *, *, #151, .T. ) ;
#118 = DIRECTION ( 'NONE',  ( 0.0000000000000000000, -1.000000000000000000, 0.0000000000000000000 ) ) ;
#119 = DIRECTION ( 'NONE',  ( 0.0000000000000000000, 1.000000000000000000, 0.0000000000000000000 ) ) ;
#120 = AXIS2_PLACEMENT_3D ( 'NONE', #183, #301, #152 ) ;
#121 = ORIENTED_EDGE ( 'NONE', *, *, #85, .T. ) ;
#122 = CARTESIAN_POINT ( 'NONE',  ( 236.3641299481269900, 0.0000000000000000000, 0.0000000000000000000 ) ) ;
#123 =( NAMED_UNIT ( * ) PLANE_ANGLE_UNIT ( ) SI_UNIT ( $, .RADIAN. ) );
#124 = EDGE_CURVE ( 'NONE', #95, #233, #191, .T. ) ;
#125 = PRODUCT_CONTEXT ( 'NONE', #284, 'mechanical' ) ;
#126 =( GEOMETRIC_REPRESENTATION_CONTEXT ( 3 ) GLOBAL_UNCERTAINTY_ASSIGNED_CONTEXT ( ( #343 ) ) GLOBAL_UNIT_ASSIGNED_CONTEXT ( ( #235, #53, #25 ) ) REPRESENTATION_CONTEXT ( 'NONE', 'WORKASPACE' ) );
#127 = DIRECTION ( 'NONE',  ( 0.0000000000000000000, 1.000000000000000000, 0.0000000000000000000 ) ) ;
#128 = PRESENTATION_STYLE_ASSIGNMENT (( #212 ) ) ;
#129 = CARTESIAN_POINT ( 'NONE',  ( 263.3356932864470500, 0.0000000000000000000, 4.000000000000000000 ) ) ;
#130 =( GEOMETRIC_REPRESENTATION_CONTEXT ( 3 ) GLOBAL_UNCERTAINTY_ASSIGNED_CONTEXT ( ( #112 ) ) GLOBAL_UNIT_ASSIGNED_CONTEXT ( ( #98, #178, #346 ) ) REPRESENTATION_CONTEXT ( 'NONE', 'WORKASPACE' ) );
#131 = EDGE_CURVE ( 'NONE', #95, #161, #266, .T. ) ;
#132 = ORIENTED_EDGE ( 'NONE', *, *, #124, .T. ) ;
#133 = FACE_OUTER_BOUND ( 'NONE', #135, .T. ) ;
#134 = CIRCLE ( 'NONE', #72, 4.599999999999981000 ) ;
#135 = EDGE_LOOP ( 'NONE', ( #150, #193, #339 ) ) ;
#136 = AXIS2_PLACEMENT_3D ( 'NONE', #333, #116, #265 ) ;
#137 = CARTESIAN_POINT ( 'NONE',  ( 268.7641299481269900, 0.0000000000000000000, 9.599933521075403000E-017 ) ) ;
#138 = ADVANCED_FACE ( 'NONE', ( #243 ), #102, .T. ) ;
#139 = EDGE_CURVE ( 'NONE', #168, #246, #134, .T. ) ;
#140 = DIRECTION ( 'NONE',  ( -1.000000000000000000, -0.0000000000000000000, -0.0000000000000000000 ) ) ;
#141 = FACE_OUTER_BOUND ( 'NONE', #251, .T. ) ;
#142 = ORIENTED_EDGE ( 'NONE', *, *, #74, .F. ) ;
#143 = VECTOR ( 'NONE', #62, 1000.000000000000000 ) ;
#144 = DIRECTION ( 'NONE',  ( 0.0000000000000000000, 0.0000000000000000000, 1.000000000000000000 ) ) ;
#145 = DIRECTION ( 'NONE',  ( 0.0000000000000000000, 0.0000000000000000000, 1.000000000000000000 ) ) ;
#146 = AXIS2_PLACEMENT_3D ( 'NONE', #43, #52, #236 ) ;
#147 = DIRECTION ( 'NONE',  ( -0.0000000000000000000, 1.000000000000000000, 1.224646799147353200E-016 ) ) ;
#148 = SURFACE_STYLE_USAGE ( .BOTH. , #24 ) ;
#149 = DIRECTION ( 'NONE',  ( 0.0000000000000000000, 0.0000000000000000000, 1.000000000000000000 ) ) ;
#150 = ORIENTED_EDGE ( 'NONE', *, *, #139, .F. ) ;
#151 = EDGE_CURVE ( 'NONE', #199, #164, #215, .T. ) ;
#152 = DIRECTION ( 'NONE',  ( 0.0000000000000000000, 0.0000000000000000000, -1.000000000000000000 ) ) ;
#153 = DIRECTION ( 'NONE',  ( -1.000000000000000000, -0.0000000000000000000, -0.0000000000000000000 ) ) ;
#154 =( NAMED_UNIT ( * ) SI_UNIT ( $, .STERADIAN. ) SOLID_ANGLE_UNIT ( ) );
#155 = LINE ( 'NONE', #286, #86 ) ;
#156 = CARTESIAN_POINT ( 'NONE',  ( 261.0641299481270000, 0.0000000000000000000, -4.744368310488125200E-016 ) ) ;
#157 = CARTESIAN_POINT ( 'NONE',  ( 124.5233095260452400, 4.898587196589412800E-016, -4.000000000000000000 ) ) ;
#158 = AXIS2_PLACEMENT_3D ( 'NONE', #275, #92, #253 ) ;
#159 = ORIENTED_EDGE ( 'NONE', *, *, #131, .F. ) ;
#160 = PRODUCT_DEFINITION_CONTEXT ( 'detailed design', #280, 'design' ) ;
#161 = VERTEX_POINT ( 'NONE', #312 ) ;
#162 = AXIS2_PLACEMENT_3D ( 'NONE', #32, #186, #4 ) ;
#163 = ADVANCED_FACE ( 'NONE', ( #308 ), #323, .T. ) ;
#164 = VERTEX_POINT ( 'NONE', #267 ) ;
#165 = DIRECTION ( 'NONE',  ( 0.0000000000000000000, -1.000000000000000000, -1.224646799147353200E-016 ) ) ;
#166 = EDGE_CURVE ( 'NONE', #91, #161, #21, .T. ) ;
#167 = CIRCLE ( 'NONE', #283, 4.599999999999981000 ) ;
#168 = VERTEX_POINT ( 'NONE', #20 ) ;
#169 = CARTESIAN_POINT ( 'NONE',  ( -0.5519199926577972300, 0.0000000000000000000, 0.0000000000000000000 ) ) ;
#170 = CIRCLE ( 'NONE', #306, 4.000000000000000900 ) ;
#171 = DIRECTION ( 'NONE',  ( -1.000000000000000000, -0.0000000000000000000, -0.0000000000000000000 ) ) ;
#172 = ORIENTED_EDGE ( 'NONE', *, *, #344, .T. ) ;
#173 = ORIENTED_EDGE ( 'NONE', *, *, #90, .T. ) ;
#174 = UNCERTAINTY_MEASURE_WITH_UNIT (LENGTH_MEASURE( 1.000000000000000100E-005 ), #29, 'distance_accuracy_value', 'NONE');
#175 = FILL_AREA_STYLE ('',( #197 ) ) ;
#176 = AXIS2_PLACEMENT_3D ( 'NONE', #137, #165, #332 ) ;
#177 = DIRECTION ( 'NONE',  ( -1.000000000000000000, -0.0000000000000000000, -0.0000000000000000000 ) ) ;
#178 =( NAMED_UNIT ( * ) PLANE_ANGLE_UNIT ( ) SI_UNIT ( $, .RADIAN. ) );
#179 = DIRECTION ( 'NONE',  ( 0.0000000000000000000, 0.0000000000000000000, 1.000000000000000000 ) ) ;
#180 = CARTESIAN_POINT ( 'NONE',  ( 124.5233095260452400, 0.0000000000000000000, 4.000000000000000000 ) ) ;
#181 = AXIS2_PLACEMENT_3D ( 'NONE', #342, #149, #310 ) ;
#182 = SURFACE_STYLE_FILL_AREA ( #175 ) ;
#183 = CARTESIAN_POINT ( 'NONE',  ( 268.7641299481269900, 0.0000000000000000000, 9.599933521075403000E-017 ) ) ;
#184 = CIRCLE ( 'NONE', #5, 4.000000000000001800 ) ;
#185 = CARTESIAN_POINT ( 'NONE',  ( 261.0641299481270000, 0.0000000000000000000, -4.744368310488125200E-016 ) ) ;
#186 = DIRECTION ( 'NONE',  ( 0.0000000000000000000, 1.000000000000000000, 0.0000000000000000000 ) ) ;
#187 = AXIS2_PLACEMENT_3D ( 'NONE', #289, #82, #241 ) ;
#188 = ORIENTED_EDGE ( 'NONE', *, *, #209, .F. ) ;
#189 = FACE_OUTER_BOUND ( 'NONE', #291, .T. ) ;
#190 = EDGE_CURVE ( 'NONE', #168, #18, #334, .T. ) ;
#191 = CIRCLE ( 'NONE', #35, 4.000000000000001800 ) ;
#192 = ORIENTED_EDGE ( 'NONE', *, *, #344, .F. ) ;
#193 = ORIENTED_EDGE ( 'NONE', *, *, #190, .T. ) ;
#194 = ADVANCED_FACE ( 'NONE', ( #326 ), #225, .F. ) ;
#195 = CARTESIAN_POINT ( 'NONE',  ( 265.6641299481269700, 0.0000000000000000000, -1.927680672449224500E-016 ) ) ;
#196 = AXIS2_PLACEMENT_3D ( 'NONE', #211, #58, #179 ) ;
#197 = FILL_AREA_STYLE_COLOUR ( '', #255 ) ;
#198 = PRODUCT_DEFINITION ( 'Î´Öª', '', #220, #160 ) ;
#199 = VERTEX_POINT ( 'NONE', #347 ) ;
#200 = DIRECTION ( 'NONE',  ( 0.0000000000000000000, 0.0000000000000000000, -1.000000000000000000 ) ) ;
#201 = DIRECTION ( 'NONE',  ( -0.0000000000000000000, 1.000000000000000000, 1.224646799147353200E-016 ) ) ;
#202 = SURFACE_STYLE_FILL_AREA ( #79 ) ;
#203 = ORIENTED_EDGE ( 'NONE', *, *, #166, .T. ) ;
#204 = ORIENTED_EDGE ( 'NONE', *, *, #115, .F. ) ;
#205 = DIRECTION ( 'NONE',  ( 0.0000000000000000000, 0.0000000000000000000, -1.000000000000000000 ) ) ;
#206 = AXIS2_PLACEMENT_3D ( 'NONE', #61, #214, #2 ) ;
#207 = DIRECTION ( 'NONE',  ( -1.000000000000000000, -0.0000000000000000000, -0.0000000000000000000 ) ) ;
#208 = DIRECTION ( 'NONE',  ( 0.0000000000000000000, 0.0000000000000000000, 1.000000000000000000 ) ) ;
#209 = EDGE_CURVE ( 'NONE', #233, #91, #155, .T. ) ;
#210 = ORIENTED_EDGE ( 'NONE', *, *, #54, .F. ) ;
#211 = CARTESIAN_POINT ( 'NONE',  ( 124.5233095260452400, 0.0000000000000000000, 0.0000000000000000000 ) ) ;
#212 = SURFACE_STYLE_USAGE ( .BOTH. , #59 ) ;
#213 = LINE ( 'NONE', #180, #318 ) ;
#214 = DIRECTION ( 'NONE',  ( 0.0000000000000000000, 1.000000000000000000, 0.0000000000000000000 ) ) ;
#215 = CIRCLE ( 'NONE', #63, 4.000000000000000900 ) ;
#216 = VERTEX_POINT ( 'NONE', #75 ) ;
#217 = PRODUCT ( '145106', '145106', '', ( #125 ) ) ;
#218 = AXIS2_PLACEMENT_3D ( 'NONE', #42, #201, #93 ) ;
#219 = EDGE_LOOP ( 'NONE', ( #142, #173, #327 ) ) ;
#220 = PRODUCT_DEFINITION_FORMATION_WITH_SPECIFIED_SOURCE ( 'ÈÎºÎ', '', #217, .NOT_KNOWN. ) ;
#221 = FACE_OUTER_BOUND ( 'NONE', #26, .T. ) ;
#222 = AXIS2_PLACEMENT_3D ( 'NONE', #156, #127, #101 ) ;
#223 = ADVANCED_FACE ( 'NONE', ( #287 ), #17, .T. ) ;
#224 = ORIENTED_EDGE ( 'NONE', *, *, #139, .T. ) ;
#225 = SPHERICAL_SURFACE ( 'NONE', #146, 4.599999999999981000 ) ;
#226 = EDGE_CURVE ( 'NONE', #18, #164, #227, .T. ) ;
#227 = LINE ( 'NONE', #157, #143 ) ;
#228 = DIRECTION ( 'NONE',  ( 0.0000000000000000000, 0.0000000000000000000, 1.000000000000000000 ) ) ;
#229 = CARTESIAN_POINT ( 'NONE',  ( 266.7015655681658500, 0.0000000000000000000, 0.0000000000000000000 ) ) ;
#230 = EDGE_LOOP ( 'NONE', ( #159, #132, #71, #319 ) ) ;
#231 = CARTESIAN_POINT ( 'NONE',  ( 236.3641299481269900, 0.0000000000000000000, 0.0000000000000000000 ) ) ;
#232 = DIRECTION ( 'NONE',  ( -1.000000000000000000, -0.0000000000000000000, -0.0000000000000000000 ) ) ;
#233 = VERTEX_POINT ( 'NONE', #335 ) ;
#234 = AXIS2_PLACEMENT_3D ( 'NONE', #330, #298, #111 ) ;
#235 =( LENGTH_UNIT ( ) NAMED_UNIT ( * ) SI_UNIT ( .MILLI., .METRE. ) );
#236 = DIRECTION ( 'NONE',  ( 0.0000000000000000000, 0.0000000000000000000, 1.000000000000000000 ) ) ;
#237 = CARTESIAN_POINT ( 'NONE',  ( 262.3019321795655400, 0.0000000000000000000, 0.0000000000000000000 ) ) ;
#238 = PRODUCT_RELATED_PRODUCT_CATEGORY ( 'part', '', ( #217 ) ) ;
#239 =( NAMED_UNIT ( * ) PLANE_ANGLE_UNIT ( ) SI_UNIT ( $, .RADIAN. ) );
#240 = CLOSED_SHELL ( 'NONE', ( #296, #12, #163, #252, #331, #274 ) ) ;
#241 = DIRECTION ( 'NONE',  ( 0.0000000000000000000, 0.0000000000000000000, -1.000000000000000000 ) ) ;
#242 = MECHANICAL_DESIGN_GEOMETRIC_PRESENTATION_REPRESENTATION (  '', ( #300 ), #257 ) ;
#243 = FACE_OUTER_BOUND ( 'NONE', #230, .T. ) ;
#244 = DIRECTION ( 'NONE',  ( -1.000000000000000000, -0.0000000000000000000, -0.0000000000000000000 ) ) ;
#245 = STYLED_ITEM ( 'NONE', ( #128 ), #297 ) ;
#246 = VERTEX_POINT ( 'NONE', #129 ) ;
#247 = UNCERTAINTY_MEASURE_WITH_UNIT (LENGTH_MEASURE( 1.000000000000000100E-005 ), #341, 'distance_accuracy_value', 'NONE');
#248 = CYLINDRICAL_SURFACE ( 'NONE', #254, 4.000000000000000000 ) ;
#249 = SHAPE_DEFINITION_REPRESENTATION ( #16, #65 ) ;
#250 = ORIENTED_EDGE ( 'NONE', *, *, #115, .T. ) ;
#251 = EDGE_LOOP ( 'NONE', ( #33, #45, #204 ) ) ;
#252 = ADVANCED_FACE ( 'NONE', ( #221 ), #9, .T. ) ;
#253 = DIRECTION ( 'NONE',  ( 0.0000000000000000000, 0.0000000000000000000, 1.000000000000000000 ) ) ;
#254 = AXIS2_PLACEMENT_3D ( 'NONE', #278, #140, #114 ) ;
#255 = COLOUR_RGB ( '',1.000000000000000000, 1.000000000000000000, 1.000000000000000000 ) ;
#256 = ORIENTED_EDGE ( 'NONE', *, *, #74, .T. ) ;
#257 =( GEOMETRIC_REPRESENTATION_CONTEXT ( 3 ) GLOBAL_UNCERTAINTY_ASSIGNED_CONTEXT ( ( #247 ) ) GLOBAL_UNIT_ASSIGNED_CONTEXT ( ( #341, #123, #309 ) ) REPRESENTATION_CONTEXT ( 'NONE', 'WORKASPACE' ) );
#258 = DIRECTION ( 'NONE',  ( -1.000000000000000000, -0.0000000000000000000, -0.0000000000000000000 ) ) ;
#259 = ORIENTED_EDGE ( 'NONE', *, *, #226, .F. ) ;
#260 = PRESENTATION_LAYER_ASSIGNMENT (  '', '', ( #245 ) ) ;
#261 = ORIENTED_EDGE ( 'NONE', *, *, #166, .F. ) ;
#262 = CARTESIAN_POINT ( 'NONE',  ( 263.3356932864470500, 0.0000000000000000000, 3.999999999999998200 ) ) ;
#263 = CARTESIAN_POINT ( 'NONE',  ( 263.3356932864470500, 0.0000000000000000000, 0.0000000000000000000 ) ) ;
#264 = SURFACE_SIDE_STYLE ('',( #47 ) ) ;
#265 = DIRECTION ( 'NONE',  ( 0.0000000000000000000, -1.224646799147353200E-016, 1.000000000000000000 ) ) ;
#266 = LINE ( 'NONE', #46, #328 ) ;
#267 = CARTESIAN_POINT ( 'NONE',  ( 262.3019321795655400, 0.0000000000000000000, -4.000000000000000000 ) ) ;
#268 = EDGE_LOOP ( 'NONE', ( #259, #14, #320, #192 ) ) ;
#269 = AXIS2_PLACEMENT_3D ( 'NONE', #11, #41, #89 ) ;
#270 = COLOUR_RGB ( '',1.000000000000000000, 1.000000000000000000, 1.000000000000000000 ) ;
#271 = AXIS2_PLACEMENT_3D ( 'NONE', #51, #232, #305 ) ;
#272 = EDGE_LOOP ( 'NONE', ( #64, #224, #210 ) ) ;
#273 = MECHANICAL_DESIGN_GEOMETRIC_PRESENTATION_REPRESENTATION (  '', ( #245 ), #292 ) ;
#274 = ADVANCED_FACE ( 'NONE', ( #279 ), #80, .T. ) ;
#275 = CARTESIAN_POINT ( 'NONE',  ( 268.7641299481269900, 0.0000000000000000000, 9.599933521075403000E-017 ) ) ;
#276 = CIRCLE ( 'NONE', #303, 30.60000000000000500 ) ;
#277 = ORIENTED_EDGE ( 'NONE', *, *, #90, .F. ) ;
#278 = CARTESIAN_POINT ( 'NONE',  ( -0.5519199926577972300, 0.0000000000000000000, 0.0000000000000000000 ) ) ;
#279 = FACE_OUTER_BOUND ( 'NONE', #272, .T. ) ;
#280 = APPLICATION_CONTEXT ( 'automotive_design' ) ;
#281 = SPHERICAL_SURFACE ( 'NONE', #19, 30.60000000000000500 ) ;
#282 = DIRECTION ( 'NONE',  ( 0.0000000000000000000, 0.0000000000000000000, 1.000000000000000000 ) ) ;
#283 = AXIS2_PLACEMENT_3D ( 'NONE', #70, #118, #200 ) ;
#284 = APPLICATION_CONTEXT ( 'automotive_design' ) ;
#285 = VERTEX_POINT ( 'NONE', #316 ) ;
#286 = CARTESIAN_POINT ( 'NONE',  ( -0.5519199926577972300, 0.0000000000000000000, 4.000000000000000000 ) ) ;
#287 = FACE_OUTER_BOUND ( 'NONE', #299, .T. ) ;
#288 = FILL_AREA_STYLE_COLOUR ( '', #270 ) ;
#289 = CARTESIAN_POINT ( 'NONE',  ( 268.7641299481269900, 0.0000000000000000000, 9.599933521075403000E-017 ) ) ;
#290 = AXIS2_PLACEMENT_3D ( 'NONE', #22, #147, #340 ) ;
#291 = EDGE_LOOP ( 'NONE', ( #250, #295, #261, #188 ) ) ;
#292 =( GEOMETRIC_REPRESENTATION_CONTEXT ( 3 ) GLOBAL_UNCERTAINTY_ASSIGNED_CONTEXT ( ( #174 ) ) GLOBAL_UNIT_ASSIGNED_CONTEXT ( ( #29, #239, #154 ) ) REPRESENTATION_CONTEXT ( 'NONE', 'WORKASPACE' ) );
#293 = ORIENTED_EDGE ( 'NONE', *, *, #226, .T. ) ;
#294 = SPHERICAL_SURFACE ( 'NONE', #222, 4.599999999999981000 ) ;
#295 = ORIENTED_EDGE ( 'NONE', *, *, #131, .T. ) ;
#296 = ADVANCED_FACE ( 'NONE', ( #133 ), #294, .T. ) ;
#297 = MANIFOLD_SOLID_BREP ( 'Ðý×ª3', #37 ) ;
#298 = DIRECTION ( 'NONE',  ( -1.000000000000000000, -0.0000000000000000000, -0.0000000000000000000 ) ) ;
#299 = EDGE_LOOP ( 'NONE', ( #57, #10, #49 ) ) ;
#300 = STYLED_ITEM ( 'NONE', ( #324 ), #83 ) ;
#301 = DIRECTION ( 'NONE',  ( -0.0000000000000000000, -1.000000000000000000, -0.0000000000000000000 ) ) ;
#302 = DIRECTION ( 'NONE',  ( 0.0000000000000000000, 0.0000000000000000000, 1.000000000000000000 ) ) ;
#303 = AXIS2_PLACEMENT_3D ( 'NONE', #231, #73, #205 ) ;
#304 = DIRECTION ( 'NONE',  ( 0.0000000000000000000, 0.0000000000000000000, 1.000000000000000000 ) ) ;
#305 = DIRECTION ( 'NONE',  ( 0.0000000000000000000, 0.0000000000000000000, 1.000000000000000000 ) ) ;
#306 = AXIS2_PLACEMENT_3D ( 'NONE', #237, #55, #208 ) ;
#307 = EDGE_LOOP ( 'NONE', ( #121, #293, #8, #338 ) ) ;
#308 = FACE_OUTER_BOUND ( 'NONE', #31, .T. ) ;
#309 =( NAMED_UNIT ( * ) SI_UNIT ( $, .STERADIAN. ) SOLID_ANGLE_UNIT ( ) );
#310 = DIRECTION ( 'NONE',  ( 1.000000000000000000, 0.0000000000000000000, 0.0000000000000000000 ) ) ;
#311 = APPLICATION_PROTOCOL_DEFINITION ( 'draft international standard', 'automotive_design', 1998, #284 ) ;
#312 = CARTESIAN_POINT ( 'NONE',  ( 263.3356932864470500, 4.898587196589411800E-016, -4.000000000000000000 ) ) ;
#313 = CIRCLE ( 'NONE', #218, 30.60000000000000500 ) ;
#314 = DIRECTION ( 'NONE',  ( 0.0000000000000000000, 0.0000000000000000000, 1.000000000000000000 ) ) ;
#315 = DIRECTION ( 'NONE',  ( -1.000000000000000000, -0.0000000000000000000, -0.0000000000000000000 ) ) ;
#316 = CARTESIAN_POINT ( 'NONE',  ( 261.1641299481269100, 0.0000000000000000000, -3.693664484652420400E-016 ) ) ;
#317 = PRESENTATION_STYLE_ASSIGNMENT (( #76 ) ) ;
#318 = VECTOR ( 'NONE', #315, 1000.000000000000000 ) ;
#319 = ORIENTED_EDGE ( 'NONE', *, *, #105, .F. ) ;
#320 = ORIENTED_EDGE ( 'NONE', *, *, #321, .T. ) ;
#321 = EDGE_CURVE ( 'NONE', #246, #199, #213, .T. ) ;
#322 = PRESENTATION_LAYER_ASSIGNMENT (  '', '', ( #300 ) ) ;
#323 = SPHERICAL_SURFACE ( 'NONE', #120, 7.600000000000029800 ) ;
#324 = PRESENTATION_STYLE_ASSIGNMENT (( #148 ) ) ;
#325 = AXIS2_PLACEMENT_3D ( 'NONE', #337, #171, #304 ) ;
#326 = FACE_OUTER_BOUND ( 'NONE', #84, .T. ) ;
#327 = ORIENTED_EDGE ( 'NONE', *, *, #105, .T. ) ;
#328 = VECTOR ( 'NONE', #48, 1000.000000000000000 ) ;
#329 = AXIS2_PLACEMENT_3D ( 'NONE', #30, #153, #28 ) ;
#330 = CARTESIAN_POINT ( 'NONE',  ( 263.3356932864470500, 0.0000000000000000000, 0.0000000000000000000 ) ) ;
#331 = ADVANCED_FACE ( 'NONE', ( #3 ), #36, .T. ) ;
#332 = DIRECTION ( 'NONE',  ( 0.0000000000000000000, 1.224646799147353200E-016, -1.000000000000000000 ) ) ;
#333 = CARTESIAN_POINT ( 'NONE',  ( 261.0641299481270000, 0.0000000000000000000, -4.744368310488125200E-016 ) ) ;
#334 = CIRCLE ( 'NONE', #136, 4.599999999999981000 ) ;
#335 = CARTESIAN_POINT ( 'NONE',  ( 266.7015655681658500, 0.0000000000000000000, 4.000000000000001800 ) ) ;
#336 = CARTESIAN_POINT ( 'NONE',  ( 266.7015655681658500, 0.0000000000000000000, 0.0000000000000000000 ) ) ;
#337 = CARTESIAN_POINT ( 'NONE',  ( 263.3356932864470500, 0.0000000000000000000, 0.0000000000000000000 ) ) ;
#338 = ORIENTED_EDGE ( 'NONE', *, *, #321, .F. ) ;
#339 = ORIENTED_EDGE ( 'NONE', *, *, #85, .F. ) ;
#340 = DIRECTION ( 'NONE',  ( 0.0000000000000000000, -1.224646799147353200E-016, 1.000000000000000000 ) ) ;
#341 =( LENGTH_UNIT ( ) NAMED_UNIT ( * ) SI_UNIT ( .MILLI., .METRE. ) );
#342 = CARTESIAN_POINT ( 'NONE',  ( 0.0000000000000000000, 0.0000000000000000000, 0.0000000000000000000 ) ) ;
#343 = UNCERTAINTY_MEASURE_WITH_UNIT (LENGTH_MEASURE( 1.000000000000000100E-005 ), #235, 'distance_accuracy_value', 'NONE');
#344 = EDGE_CURVE ( 'NONE', #164, #199, #170, .T. ) ;
#345 = DIRECTION ( 'NONE',  ( -1.000000000000000000, -0.0000000000000000000, -0.0000000000000000000 ) ) ;
#346 =( NAMED_UNIT ( * ) SI_UNIT ( $, .STERADIAN. ) SOLID_ANGLE_UNIT ( ) );
#347 = CARTESIAN_POINT ( 'NONE',  ( 262.3019321795655400, -4.898587196589413800E-016, 4.000000000000000000 ) ) ;
ENDSEC;
END-ISO-10303-21;
