ISO-10303-21;
HEADER;
FILE_DESCRIPTION (( 'STEP AP214' ),
    '1' );
FILE_NAME ('145089.STEP',
    '2019-05-21T13:12:33',
    ( '' ),
    ( '' ),
    'SwSTEP 2.0',
    'SolidWorks 2016',
    '' );
FILE_SCHEMA (( 'AUTOMOTIVE_DESIGN' ));
ENDSEC;

DATA;
#1 = ORIENTED_EDGE ( 'NONE', *, *, #280, .F. ) ;
#2 = EDGE_CURVE ( 'NONE', #189, #222, #68, .T. ) ;
#3 = CYLINDRICAL_SURFACE ( 'NONE', #181, 25.39999999999999500 ) ;
#4 = AXIS2_PLACEMENT_3D ( 'NONE', #20, #200, #225 ) ;
#5 = APPLICATION_PROTOCOL_DEFINITION ( 'draft international standard', 'automotive_design', 1998, #161 ) ;
#6 = DIRECTION ( 'NONE',  ( 0.0000000000000000000, 0.0000000000000000000, 1.000000000000000000 ) ) ;
#7 = AXIS2_PLACEMENT_3D ( 'NONE', #262, #107, #211 ) ;
#8 = ADVANCED_FACE ( 'NONE', ( #50 ), #143, .F. ) ;
#9 = ORIENTED_EDGE ( 'NONE', *, *, #151, .F. ) ;
#10 = ORIENTED_EDGE ( 'NONE', *, *, #100, .T. ) ;
#11 = DIRECTION ( 'NONE',  ( -1.000000000000000000, -0.0000000000000000000, -0.0000000000000000000 ) ) ;
#12 = DIRECTION ( 'NONE',  ( 0.0000000000000000000, 0.0000000000000000000, 1.000000000000000000 ) ) ;
#13 = COLOUR_RGB ( '',1.000000000000000000, 1.000000000000000000, 1.000000000000000000 ) ;
#14 = EDGE_CURVE ( 'NONE', #147, #189, #319, .T. ) ;
#15 = DIRECTION ( 'NONE',  ( 0.0000000000000000000, -1.224646799147353000E-016, 1.000000000000000000 ) ) ;
#16 = DIRECTION ( 'NONE',  ( 0.0000000000000000000, 0.0000000000000000000, 1.000000000000000000 ) ) ;
#17 = DIRECTION ( 'NONE',  ( -1.000000000000000000, -0.0000000000000000000, -0.0000000000000000000 ) ) ;
#18 =( NAMED_UNIT ( * ) SI_UNIT ( $, .STERADIAN. ) SOLID_ANGLE_UNIT ( ) );
#19 = FACE_OUTER_BOUND ( 'NONE', #229, .T. ) ;
#20 = CARTESIAN_POINT ( 'NONE',  ( 351.8635622172672000, 0.0000000000000000000, 0.0000000000000000000 ) ) ;
#21 = DIRECTION ( 'NONE',  ( 0.0000000000000000000, -1.224646799147353000E-016, 1.000000000000000000 ) ) ;
#22 = AXIS2_PLACEMENT_3D ( 'NONE', #269, #263, #166 ) ;
#23 = DIRECTION ( 'NONE',  ( 0.0000000000000000000, 1.000000000000000000, 0.0000000000000000000 ) ) ;
#24 = FACE_OUTER_BOUND ( 'NONE', #261, .T. ) ;
#25 = EDGE_CURVE ( 'NONE', #222, #258, #83, .T. ) ;
#26 = FACE_OUTER_BOUND ( 'NONE', #341, .T. ) ;
#27 = EDGE_LOOP ( 'NONE', ( #113, #322, #224 ) ) ;
#28 = CARTESIAN_POINT ( 'NONE',  ( 124.5233095260452400, 0.0000000000000000000, 0.0000000000000000000 ) ) ;
#29 = CARTESIAN_POINT ( 'NONE',  ( 124.5233095260452400, 0.0000000000000000000, 25.39999999999999500 ) ) ;
#30 = VECTOR ( 'NONE', #34, 1000.000000000000000 ) ;
#31 = CIRCLE ( 'NONE', #247, 25.40000000000007000 ) ;
#32 = DIRECTION ( 'NONE',  ( -1.000000000000000000, -0.0000000000000000000, -0.0000000000000000000 ) ) ;
#33 = APPLICATION_PROTOCOL_DEFINITION ( 'draft international standard', 'automotive_design', 1998, #264 ) ;
#34 = DIRECTION ( 'NONE',  ( -1.000000000000000000, -0.0000000000000000000, -0.0000000000000000000 ) ) ;
#35 = ADVANCED_FACE ( 'NONE', ( #75 ), #3, .T. ) ;
#36 = FILL_AREA_STYLE ('',( #81 ) ) ;
#37 = DIRECTION ( 'NONE',  ( 0.0000000000000000000, 1.000000000000000000, 0.0000000000000000000 ) ) ;
#38 = EDGE_CURVE ( 'NONE', #258, #222, #31, .T. ) ;
#39 = DIRECTION ( 'NONE',  ( 0.0000000000000000000, -1.000000000000000000, 0.0000000000000000000 ) ) ;
#40 = SURFACE_STYLE_FILL_AREA ( #309 ) ;
#41 = CIRCLE ( 'NONE', #257, 25.39999999999999500 ) ;
#42 = DIRECTION ( 'NONE',  ( -1.000000000000000000, -0.0000000000000000000, -0.0000000000000000000 ) ) ;
#43 = SURFACE_SIDE_STYLE ('',( #40 ) ) ;
#44 = DIRECTION ( 'NONE',  ( -0.0000000000000000000, 1.000000000000000000, 1.224646799147353200E-016 ) ) ;
#45 = FACE_OUTER_BOUND ( 'NONE', #124, .T. ) ;
#46 = VERTEX_POINT ( 'NONE', #217 ) ;
#47 = SURFACE_STYLE_FILL_AREA ( #86 ) ;
#48 = ORIENTED_EDGE ( 'NONE', *, *, #280, .T. ) ;
#49 = AXIS2_PLACEMENT_3D ( 'NONE', #342, #23, #339 ) ;
#50 = FACE_OUTER_BOUND ( 'NONE', #27, .T. ) ;
#51 = ORIENTED_EDGE ( 'NONE', *, *, #2, .F. ) ;
#52 = UNCERTAINTY_MEASURE_WITH_UNIT (LENGTH_MEASURE( 1.000000000000000100E-005 ), #325, 'distance_accuracy_value', 'NONE');
#53 = DIRECTION ( 'NONE',  ( 0.0000000000000000000, 0.0000000000000000000, 1.000000000000000000 ) ) ;
#54 = CIRCLE ( 'NONE', #88, 93.10000000000101700 ) ;
#55 = ORIENTED_EDGE ( 'NONE', *, *, #38, .F. ) ;
#56 = CARTESIAN_POINT ( 'NONE',  ( 452.1217824430913800, 0.0000000000000000000, -2.447479442962767300E-015 ) ) ;
#57 = SURFACE_STYLE_USAGE ( .BOTH. , #116 ) ;
#58 = ORIENTED_EDGE ( 'NONE', *, *, #331, .T. ) ;
#59 = EDGE_LOOP ( 'NONE', ( #218, #178, #201 ) ) ;
#60 = DIRECTION ( 'NONE',  ( 0.0000000000000000000, 0.0000000000000000000, -1.000000000000000000 ) ) ;
#61 = CARTESIAN_POINT ( 'NONE',  ( -23.57821755690764200, 0.0000000000000000000, 0.0000000000000000000 ) ) ;
#62 = CARTESIAN_POINT ( 'NONE',  ( 351.8635622172672000, 3.110602869834280800E-015, -25.40000000000002000 ) ) ;
#63 = DIRECTION ( 'NONE',  ( 0.0000000000000000000, 1.000000000000000000, 0.0000000000000000000 ) ) ;
#64 = ADVANCED_FACE ( 'NONE', ( #72 ), #156, .T. ) ;
#65 = PRESENTATION_STYLE_ASSIGNMENT (( #57 ) ) ;
#66 = DIRECTION ( 'NONE',  ( -1.000000000000000000, -0.0000000000000000000, -0.0000000000000000000 ) ) ;
#67 = CARTESIAN_POINT ( 'NONE',  ( 345.1972763652048000, 3.110602869834276900E-015, -25.40000000000000600 ) ) ;
#68 = LINE ( 'NONE', #255, #210 ) ;
#69 = CARTESIAN_POINT ( 'NONE',  ( 452.1217824430913800, 0.0000000000000000000, -2.447479442962767300E-015 ) ) ;
#70 = ORIENTED_EDGE ( 'NONE', *, *, #14, .F. ) ;
#71 = AXIS2_PLACEMENT_3D ( 'NONE', #186, #32, #212 ) ;
#72 = FACE_OUTER_BOUND ( 'NONE', #327, .T. ) ;
#73 = CARTESIAN_POINT ( 'NONE',  ( 257.6217824430913800, 0.0000000000000000000, 2.168404344971008900E-016 ) ) ;
#74 = PRODUCT_DEFINITION_CONTEXT ( 'detailed design', #264, 'design' ) ;
#75 = FACE_OUTER_BOUND ( 'NONE', #286, .T. ) ;
#76 = ORIENTED_EDGE ( 'NONE', *, *, #287, .T. ) ;
#77 = CIRCLE ( 'NONE', #177, 93.10000000000101700 ) ;
#78 = VERTEX_POINT ( 'NONE', #90 ) ;
#79 = AXIS2_PLACEMENT_3D ( 'NONE', #302, #39, #60 ) ;
#80 = CARTESIAN_POINT ( 'NONE',  ( 345.1972763652048000, 0.0000000000000000000, 0.0000000000000000000 ) ) ;
#81 = FILL_AREA_STYLE_COLOUR ( '', #326 ) ;
#82 = FACE_OUTER_BOUND ( 'NONE', #99, .T. ) ;
#83 = CIRCLE ( 'NONE', #71, 25.40000000000007000 ) ;
#84 =( LENGTH_UNIT ( ) NAMED_UNIT ( * ) SI_UNIT ( .MILLI., .METRE. ) );
#85 = ADVANCED_FACE ( 'NONE', ( #19 ), #340, .F. ) ;
#86 = FILL_AREA_STYLE ('',( #299 ) ) ;
#87 = DIRECTION ( 'NONE',  ( 0.0000000000000000000, 0.0000000000000000000, 1.000000000000000000 ) ) ;
#88 = AXIS2_PLACEMENT_3D ( 'NONE', #174, #44, #21 ) ;
#89 = SPHERICAL_SURFACE ( 'NONE', #49, 93.10000000000101700 ) ;
#90 = CARTESIAN_POINT ( 'NONE',  ( 351.8635622172672000, 0.0000000000000000000, 25.40000000000002000 ) ) ;
#91 = DIRECTION ( 'NONE',  ( 0.0000000000000000000, 0.0000000000000000000, 1.000000000000000000 ) ) ;
#92 = DIRECTION ( 'NONE',  ( -1.000000000000000000, -0.0000000000000000000, -0.0000000000000000000 ) ) ;
#93 = DIRECTION ( 'NONE',  ( 0.0000000000000000000, 0.0000000000000000000, 1.000000000000000000 ) ) ;
#94 = SHAPE_DEFINITION_REPRESENTATION ( #318, #285 ) ;
#95 = DIRECTION ( 'NONE',  ( 0.0000000000000000000, -1.000000000000000000, 0.0000000000000000000 ) ) ;
#96 = DIRECTION ( 'NONE',  ( -1.000000000000000000, -0.0000000000000000000, -0.0000000000000000000 ) ) ;
#97 = FACE_OUTER_BOUND ( 'NONE', #108, .T. ) ;
#98 = DIRECTION ( 'NONE',  ( 0.0000000000000000000, -1.000000000000000000, 0.0000000000000000000 ) ) ;
#99 = EDGE_LOOP ( 'NONE', ( #106, #135, #1, #103 ) ) ;
#100 = EDGE_CURVE ( 'NONE', #163, #222, #206, .T. ) ;
#101 = AXIS2_PLACEMENT_3D ( 'NONE', #248, #139, #297 ) ;
#102 = PRESENTATION_STYLE_ASSIGNMENT (( #214 ) ) ;
#103 = ORIENTED_EDGE ( 'NONE', *, *, #331, .F. ) ;
#104 = CIRCLE ( 'NONE', #176, 25.39999999999999500 ) ;
#105 = AXIS2_PLACEMENT_3D ( 'NONE', #227, #126, #314 ) ;
#106 = ORIENTED_EDGE ( 'NONE', *, *, #151, .T. ) ;
#107 = DIRECTION ( 'NONE',  ( 0.0000000000000000000, 0.0000000000000000000, 1.000000000000000000 ) ) ;
#108 = EDGE_LOOP ( 'NONE', ( #48, #157, #240 ) ) ;
#109 = CARTESIAN_POINT ( 'NONE',  ( 257.6217824430913800, 0.0000000000000000000, 2.168404344971008900E-016 ) ) ;
#110 = AXIS2_PLACEMENT_3D ( 'NONE', #109, #165, #53 ) ;
#111 = DIRECTION ( 'NONE',  ( -1.000000000000000000, -0.0000000000000000000, -0.0000000000000000000 ) ) ;
#112 = CIRCLE ( 'NONE', #4, 25.40000000000002000 ) ;
#113 = ORIENTED_EDGE ( 'NONE', *, *, #100, .F. ) ;
#114 = MANIFOLD_SOLID_BREP ( 'Ðý×ª3', #167 ) ;
#115 = STYLED_ITEM ( 'NONE', ( #65 ), #114 ) ;
#116 = SURFACE_SIDE_STYLE ('',( #47 ) ) ;
#117 = AXIS2_PLACEMENT_3D ( 'NONE', #69, #253, #311 ) ;
#118 = CIRCLE ( 'NONE', #195, 25.39999999999999500 ) ;
#119 = ORIENTED_EDGE ( 'NONE', *, *, #153, .T. ) ;
#120 = SURFACE_STYLE_USAGE ( .BOTH. , #43 ) ;
#121 = CARTESIAN_POINT ( 'NONE',  ( 345.1972763652048000, 0.0000000000000000000, 0.0000000000000000000 ) ) ;
#122 = AXIS2_PLACEMENT_3D ( 'NONE', #216, #136, #87 ) ;
#123 = ORIENTED_EDGE ( 'NONE', *, *, #270, .F. ) ;
#124 = EDGE_LOOP ( 'NONE', ( #128, #294, #55, #250 ) ) ;
#125 = DIRECTION ( 'NONE',  ( -1.000000000000000000, -0.0000000000000000000, -0.0000000000000000000 ) ) ;
#126 = DIRECTION ( 'NONE',  ( 0.0000000000000000000, 1.000000000000000000, 0.0000000000000000000 ) ) ;
#127 = SPHERICAL_SURFACE ( 'NONE', #122, 376.3000000000000100 ) ;
#128 = ORIENTED_EDGE ( 'NONE', *, *, #209, .T. ) ;
#129 = MECHANICAL_DESIGN_GEOMETRIC_PRESENTATION_REPRESENTATION (  '', ( #184 ), #154 ) ;
#130 = AXIS2_PLACEMENT_3D ( 'NONE', #61, #63, #246 ) ;
#131 = AXIS2_PLACEMENT_3D ( 'NONE', #199, #42, #150 ) ;
#132 = SURFACE_SIDE_STYLE ('',( #249 ) ) ;
#133 = AXIS2_PLACEMENT_3D ( 'NONE', #278, #125, #276 ) ;
#134 = CARTESIAN_POINT ( 'NONE',  ( 345.1972763652048000, 0.0000000000000000000, 25.39999999999999900 ) ) ;
#135 = ORIENTED_EDGE ( 'NONE', *, *, #193, .T. ) ;
#136 = DIRECTION ( 'NONE',  ( 0.0000000000000000000, 1.000000000000000000, 0.0000000000000000000 ) ) ;
#137 = AXIS2_PLACEMENT_3D ( 'NONE', #306, #95, #219 ) ;
#138 = DIRECTION ( 'NONE',  ( 0.0000000000000000000, 0.0000000000000000000, 1.000000000000000000 ) ) ;
#139 = DIRECTION ( 'NONE',  ( 0.0000000000000000000, -1.000000000000000000, 0.0000000000000000000 ) ) ;
#140 = ADVANCED_FACE ( 'NONE', ( #347 ), #267, .T. ) ;
#141 = CARTESIAN_POINT ( 'NONE',  ( 350.7217824430923700, 0.0000000000000000000, 5.917571284528091800E-015 ) ) ;
#142 = CYLINDRICAL_SURFACE ( 'NONE', #298, 25.40000000000004500 ) ;
#143 = SPHERICAL_SURFACE ( 'NONE', #105, 93.10000000000101700 ) ;
#144 = DIRECTION ( 'NONE',  ( 0.0000000000000000000, 0.0000000000000000000, 1.000000000000000000 ) ) ;
#145 =( LENGTH_UNIT ( ) NAMED_UNIT ( * ) SI_UNIT ( .MILLI., .METRE. ) );
#146 = CARTESIAN_POINT ( 'NONE',  ( 347.1899129360305700, 0.0000000000000000000, 25.40000000000004100 ) ) ;
#147 = VERTEX_POINT ( 'NONE', #215 ) ;
#148 = CARTESIAN_POINT ( 'NONE',  ( 347.1899129360305700, 0.0000000000000000000, 25.39999999999999500 ) ) ;
#149 = PRODUCT_DEFINITION_FORMATION_WITH_SPECIFIED_SOURCE ( 'ÈÎºÎ', '', #336, .NOT_KNOWN. ) ;
#150 = DIRECTION ( 'NONE',  ( 0.0000000000000000000, 0.0000000000000000000, 1.000000000000000000 ) ) ;
#151 = EDGE_CURVE ( 'NONE', #328, #171, #197, .T. ) ;
#152 = CLOSED_SHELL ( 'NONE', ( #245, #236, #330, #140, #35, #334 ) ) ;
#153 = EDGE_CURVE ( 'NONE', #147, #78, #221, .T. ) ;
#154 =( GEOMETRIC_REPRESENTATION_CONTEXT ( 3 ) GLOBAL_UNCERTAINTY_ASSIGNED_CONTEXT ( ( #52 ) ) GLOBAL_UNIT_ASSIGNED_CONTEXT ( ( #325, #235, #260 ) ) REPRESENTATION_CONTEXT ( 'NONE', 'WORKASPACE' ) );
#155 = LINE ( 'NONE', #220, #228 ) ;
#156 = SPHERICAL_SURFACE ( 'NONE', #130, 376.3000000000000100 ) ;
#157 = ORIENTED_EDGE ( 'NONE', *, *, #270, .T. ) ;
#158 = CYLINDRICAL_SURFACE ( 'NONE', #133, 25.40000000000004500 ) ;
#159 = DIRECTION ( 'NONE',  ( 0.0000000000000000000, 1.000000000000000000, 0.0000000000000000000 ) ) ;
#160 = PRODUCT_CONTEXT ( 'NONE', #161, 'mechanical' ) ;
#161 = APPLICATION_CONTEXT ( 'automotive_design' ) ;
#162 = FACE_OUTER_BOUND ( 'NONE', #59, .T. ) ;
#163 = VERTEX_POINT ( 'NONE', #141 ) ;
#164 =( NAMED_UNIT ( * ) SI_UNIT ( $, .STERADIAN. ) SOLID_ANGLE_UNIT ( ) );
#165 = DIRECTION ( 'NONE',  ( 0.0000000000000000000, 1.000000000000000000, 0.0000000000000000000 ) ) ;
#166 = DIRECTION ( 'NONE',  ( 0.0000000000000000000, -1.224646799147353200E-016, 1.000000000000000000 ) ) ;
#167 = CLOSED_SHELL ( 'NONE', ( #64, #329, #85, #8, #291, #191 ) ) ;
#168 = CARTESIAN_POINT ( 'NONE',  ( 350.7217824430923700, 0.0000000000000000000, 5.917571284528091800E-015 ) ) ;
#169 = CARTESIAN_POINT ( 'NONE',  ( 347.1899129360305700, 0.0000000000000000000, 0.0000000000000000000 ) ) ;
#170 = VECTOR ( 'NONE', #11, 1000.000000000000000 ) ;
#171 = VERTEX_POINT ( 'NONE', #194 ) ;
#172 =( NAMED_UNIT ( * ) PLANE_ANGLE_UNIT ( ) SI_UNIT ( $, .RADIAN. ) );
#173 =( GEOMETRIC_REPRESENTATION_CONTEXT ( 3 ) GLOBAL_UNCERTAINTY_ASSIGNED_CONTEXT ( ( #345 ) ) GLOBAL_UNIT_ASSIGNED_CONTEXT ( ( #145, #172, #18 ) ) REPRESENTATION_CONTEXT ( 'NONE', 'WORKASPACE' ) );
#174 = CARTESIAN_POINT ( 'NONE',  ( 257.6217824430913800, 0.0000000000000000000, 2.168404344971008900E-016 ) ) ;
#175 = EDGE_CURVE ( 'NONE', #163, #258, #205, .T. ) ;
#176 = AXIS2_PLACEMENT_3D ( 'NONE', #121, #96, #144 ) ;
#177 = AXIS2_PLACEMENT_3D ( 'NONE', #73, #98, #187 ) ;
#178 = ORIENTED_EDGE ( 'NONE', *, *, #323, .T. ) ;
#179 = AXIS2_PLACEMENT_3D ( 'NONE', #332, #192, #91 ) ;
#180 = PRODUCT_DEFINITION ( 'Î´Öª', '', #149, #74 ) ;
#181 = AXIS2_PLACEMENT_3D ( 'NONE', #28, #237, #6 ) ;
#182 = LINE ( 'NONE', #29, #30 ) ;
#183 = ORIENTED_EDGE ( 'NONE', *, *, #288, .T. ) ;
#184 = STYLED_ITEM ( 'NONE', ( #102 ), #285 ) ;
#185 = VERTEX_POINT ( 'NONE', #168 ) ;
#186 = CARTESIAN_POINT ( 'NONE',  ( 347.1899129360305700, 0.0000000000000000000, 0.0000000000000000000 ) ) ;
#187 = DIRECTION ( 'NONE',  ( 0.0000000000000000000, 0.0000000000000000000, -1.000000000000000000 ) ) ;
#188 = DIRECTION ( 'NONE',  ( 0.0000000000000000000, 0.0000000000000000000, 1.000000000000000000 ) ) ;
#189 = VERTEX_POINT ( 'NONE', #62 ) ;
#190 = ORIENTED_EDGE ( 'NONE', *, *, #14, .T. ) ;
#191 = ADVANCED_FACE ( 'NONE', ( #26 ), #127, .T. ) ;
#192 = DIRECTION ( 'NONE',  ( 0.0000000000000000000, 1.000000000000000000, 0.0000000000000000000 ) ) ;
#193 = EDGE_CURVE ( 'NONE', #171, #320, #316, .T. ) ;
#194 = CARTESIAN_POINT ( 'NONE',  ( 347.1899129360305700, 3.110602869834276500E-015, -25.39999999999999500 ) ) ;
#195 = AXIS2_PLACEMENT_3D ( 'NONE', #169, #252, #93 ) ;
#196 =( GEOMETRIC_REPRESENTATION_CONTEXT ( 3 ) GLOBAL_UNCERTAINTY_ASSIGNED_CONTEXT ( ( #303 ) ) GLOBAL_UNIT_ASSIGNED_CONTEXT ( ( #265, #324, #164 ) ) REPRESENTATION_CONTEXT ( 'NONE', 'WORKASPACE' ) );
#197 = CIRCLE ( 'NONE', #230, 25.39999999999999500 ) ;
#198 = ORIENTED_EDGE ( 'NONE', *, *, #310, .F. ) ;
#199 = CARTESIAN_POINT ( 'NONE',  ( 351.8635622172672000, 0.0000000000000000000, 0.0000000000000000000 ) ) ;
#200 = DIRECTION ( 'NONE',  ( -1.000000000000000000, -0.0000000000000000000, -0.0000000000000000000 ) ) ;
#201 = ORIENTED_EDGE ( 'NONE', *, *, #288, .F. ) ;
#202 = ORIENTED_EDGE ( 'NONE', *, *, #323, .F. ) ;
#203 = DIRECTION ( 'NONE',  ( 0.0000000000000000000, 0.0000000000000000000, 1.000000000000000000 ) ) ;
#204 = AXIS2_PLACEMENT_3D ( 'NONE', #333, #37, #16 ) ;
#205 = CIRCLE ( 'NONE', #101, 93.10000000000101700 ) ;
#206 = CIRCLE ( 'NONE', #273, 93.10000000000101700 ) ;
#207 = COLOUR_RGB ( '',1.000000000000000000, 1.000000000000000000, 1.000000000000000000 ) ;
#208 = UNCERTAINTY_MEASURE_WITH_UNIT (LENGTH_MEASURE( 1.000000000000000100E-005 ), #84, 'distance_accuracy_value', 'NONE');
#209 = EDGE_CURVE ( 'NONE', #78, #189, #292, .T. ) ;
#210 = VECTOR ( 'NONE', #284, 1000.000000000000000 ) ;
#211 = DIRECTION ( 'NONE',  ( 1.000000000000000000, 0.0000000000000000000, 0.0000000000000000000 ) ) ;
#212 = DIRECTION ( 'NONE',  ( 0.0000000000000000000, 0.0000000000000000000, 1.000000000000000000 ) ) ;
#213 = ORIENTED_EDGE ( 'NONE', *, *, #344, .F. ) ;
#214 = SURFACE_STYLE_USAGE ( .BOTH. , #132 ) ;
#215 = CARTESIAN_POINT ( 'NONE',  ( 352.7217824430923700, 0.0000000000000000000, 2.304172952595745200E-014 ) ) ;
#216 = CARTESIAN_POINT ( 'NONE',  ( -23.57821755690764200, 0.0000000000000000000, 0.0000000000000000000 ) ) ;
#217 = CARTESIAN_POINT ( 'NONE',  ( 342.2217824430914000, 0.0000000000000000000, 4.281954718351938600E-015 ) ) ;
#218 = ORIENTED_EDGE ( 'NONE', *, *, #226, .F. ) ;
#219 = DIRECTION ( 'NONE',  ( 0.0000000000000000000, 0.0000000000000000000, -1.000000000000000000 ) ) ;
#220 = CARTESIAN_POINT ( 'NONE',  ( -0.5519199926577972300, 0.0000000000000000000, 25.40000000000004500 ) ) ;
#221 = CIRCLE ( 'NONE', #79, 376.3000000000000100 ) ;
#222 = VERTEX_POINT ( 'NONE', #335 ) ;
#223 = DIRECTION ( 'NONE',  ( 0.0000000000000000000, 0.0000000000000000000, 1.000000000000000000 ) ) ;
#224 = ORIENTED_EDGE ( 'NONE', *, *, #38, .T. ) ;
#225 = DIRECTION ( 'NONE',  ( 0.0000000000000000000, 0.0000000000000000000, 1.000000000000000000 ) ) ;
#226 = EDGE_CURVE ( 'NONE', #185, #171, #54, .T. ) ;
#227 = CARTESIAN_POINT ( 'NONE',  ( 257.6217824430913800, 0.0000000000000000000, 2.168404344971008900E-016 ) ) ;
#228 = VECTOR ( 'NONE', #92, 1000.000000000000000 ) ;
#229 = EDGE_LOOP ( 'NONE', ( #283, #10, #305 ) ) ;
#230 = AXIS2_PLACEMENT_3D ( 'NONE', #241, #111, #12 ) ;
#231 = EDGE_CURVE ( 'NONE', #78, #258, #155, .T. ) ;
#232 = PRODUCT_RELATED_PRODUCT_CATEGORY ( 'part', '', ( #336 ) ) ;
#233 = ORIENTED_EDGE ( 'NONE', *, *, #226, .T. ) ;
#234 = PRESENTATION_LAYER_ASSIGNMENT (  '', '', ( #115 ) ) ;
#235 =( NAMED_UNIT ( * ) PLANE_ANGLE_UNIT ( ) SI_UNIT ( $, .RADIAN. ) );
#236 = ADVANCED_FACE ( 'NONE', ( #82 ), #281, .T. ) ;
#237 = DIRECTION ( 'NONE',  ( -1.000000000000000000, -0.0000000000000000000, -0.0000000000000000000 ) ) ;
#238 = PRESENTATION_STYLE_ASSIGNMENT (( #120 ) ) ;
#239 = PRESENTATION_LAYER_ASSIGNMENT (  '', '', ( #184 ) ) ;
#240 = ORIENTED_EDGE ( 'NONE', *, *, #287, .F. ) ;
#241 = CARTESIAN_POINT ( 'NONE',  ( 347.1899129360305700, 0.0000000000000000000, 0.0000000000000000000 ) ) ;
#242 = CIRCLE ( 'NONE', #117, 109.8999999999999900 ) ;
#243 = CARTESIAN_POINT ( 'NONE',  ( 347.1899129360305700, 0.0000000000000000000, 0.0000000000000000000 ) ) ;
#244 = ORIENTED_EDGE ( 'NONE', *, *, #231, .T. ) ;
#245 = ADVANCED_FACE ( 'NONE', ( #24 ), #89, .T. ) ;
#246 = DIRECTION ( 'NONE',  ( 0.0000000000000000000, 0.0000000000000000000, 1.000000000000000000 ) ) ;
#247 = AXIS2_PLACEMENT_3D ( 'NONE', #243, #271, #138 ) ;
#248 = CARTESIAN_POINT ( 'NONE',  ( 257.6217824430913800, 0.0000000000000000000, 2.168404344971008900E-016 ) ) ;
#249 = SURFACE_STYLE_FILL_AREA ( #36 ) ;
#250 = ORIENTED_EDGE ( 'NONE', *, *, #231, .F. ) ;
#251 = ORIENTED_EDGE ( 'NONE', *, *, #209, .F. ) ;
#252 = DIRECTION ( 'NONE',  ( -1.000000000000000000, -0.0000000000000000000, -0.0000000000000000000 ) ) ;
#253 = DIRECTION ( 'NONE',  ( -0.0000000000000000000, 1.000000000000000000, 1.224646799147353200E-016 ) ) ;
#254 = MECHANICAL_DESIGN_GEOMETRIC_PRESENTATION_REPRESENTATION (  '', ( #115 ), #315 ) ;
#255 = CARTESIAN_POINT ( 'NONE',  ( -0.5519199926577972300, 3.110602869834282400E-015, -25.40000000000004500 ) ) ;
#256 = EDGE_LOOP ( 'NONE', ( #123, #293, #76 ) ) ;
#257 = AXIS2_PLACEMENT_3D ( 'NONE', #80, #290, #295 ) ;
#258 = VERTEX_POINT ( 'NONE', #146 ) ;
#259 = PRESENTATION_LAYER_ASSIGNMENT (  '', '', ( #317 ) ) ;
#260 =( NAMED_UNIT ( * ) SI_UNIT ( $, .STERADIAN. ) SOLID_ANGLE_UNIT ( ) );
#261 = EDGE_LOOP ( 'NONE', ( #202, #233, #9 ) ) ;
#262 = CARTESIAN_POINT ( 'NONE',  ( 0.0000000000000000000, 0.0000000000000000000, 0.0000000000000000000 ) ) ;
#263 = DIRECTION ( 'NONE',  ( -0.0000000000000000000, 1.000000000000000000, 1.224646799147353200E-016 ) ) ;
#264 = APPLICATION_CONTEXT ( 'automotive_design' ) ;
#265 =( LENGTH_UNIT ( ) NAMED_UNIT ( * ) SI_UNIT ( .MILLI., .METRE. ) );
#266 =( NAMED_UNIT ( * ) PLANE_ANGLE_UNIT ( ) SI_UNIT ( $, .RADIAN. ) );
#267 = SPHERICAL_SURFACE ( 'NONE', #179, 109.8999999999999900 ) ;
#268 = ORIENTED_EDGE ( 'NONE', *, *, #153, .F. ) ;
#269 = CARTESIAN_POINT ( 'NONE',  ( -23.57821755690764200, 0.0000000000000000000, 0.0000000000000000000 ) ) ;
#270 = EDGE_CURVE ( 'NONE', #320, #46, #242, .T. ) ;
#271 = DIRECTION ( 'NONE',  ( -1.000000000000000000, -0.0000000000000000000, -0.0000000000000000000 ) ) ;
#272 = CARTESIAN_POINT ( 'NONE',  ( 257.6217824430913800, 0.0000000000000000000, 2.168404344971008900E-016 ) ) ;
#273 = AXIS2_PLACEMENT_3D ( 'NONE', #272, #274, #15 ) ;
#274 = DIRECTION ( 'NONE',  ( -0.0000000000000000000, 1.000000000000000000, 1.224646799147353200E-016 ) ) ;
#275 = FILL_AREA_STYLE_COLOUR ( '', #13 ) ;
#276 = DIRECTION ( 'NONE',  ( 0.0000000000000000000, 0.0000000000000000000, 1.000000000000000000 ) ) ;
#277 = EDGE_LOOP ( 'NONE', ( #51, #338, #244, #307 ) ) ;
#278 = CARTESIAN_POINT ( 'NONE',  ( -0.5519199926577972300, 0.0000000000000000000, 0.0000000000000000000 ) ) ;
#279 = CARTESIAN_POINT ( 'NONE',  ( -0.5519199926577972300, 0.0000000000000000000, 0.0000000000000000000 ) ) ;
#280 = EDGE_CURVE ( 'NONE', #346, #320, #104, .T. ) ;
#281 = CYLINDRICAL_SURFACE ( 'NONE', #304, 25.39999999999999500 ) ;
#282 = MECHANICAL_DESIGN_GEOMETRIC_PRESENTATION_REPRESENTATION (  '', ( #317 ), #173 ) ;
#283 = ORIENTED_EDGE ( 'NONE', *, *, #175, .F. ) ;
#284 = DIRECTION ( 'NONE',  ( -1.000000000000000000, -0.0000000000000000000, -0.0000000000000000000 ) ) ;
#285 = ADVANCED_BREP_SHAPE_REPRESENTATION ( '145089', ( #289, #114, #7 ), #196 ) ;
#286 = EDGE_LOOP ( 'NONE', ( #313, #183, #58, #213 ) ) ;
#287 = EDGE_CURVE ( 'NONE', #346, #46, #301, .T. ) ;
#288 = EDGE_CURVE ( 'NONE', #171, #328, #118, .T. ) ;
#289 = MANIFOLD_SOLID_BREP ( 'Ðý×ª1', #152 ) ;
#290 = DIRECTION ( 'NONE',  ( -1.000000000000000000, -0.0000000000000000000, -0.0000000000000000000 ) ) ;
#291 = ADVANCED_FACE ( 'NONE', ( #337 ), #142, .T. ) ;
#292 = CIRCLE ( 'NONE', #131, 25.40000000000002000 ) ;
#293 = ORIENTED_EDGE ( 'NONE', *, *, #344, .T. ) ;
#294 = ORIENTED_EDGE ( 'NONE', *, *, #2, .T. ) ;
#295 = DIRECTION ( 'NONE',  ( 0.0000000000000000000, 0.0000000000000000000, 1.000000000000000000 ) ) ;
#296 =( NAMED_UNIT ( * ) SI_UNIT ( $, .STERADIAN. ) SOLID_ANGLE_UNIT ( ) );
#297 = DIRECTION ( 'NONE',  ( 0.0000000000000000000, 0.0000000000000000000, -1.000000000000000000 ) ) ;
#298 = AXIS2_PLACEMENT_3D ( 'NONE', #279, #17, #223 ) ;
#299 = FILL_AREA_STYLE_COLOUR ( '', #207 ) ;
#300 = CARTESIAN_POINT ( 'NONE',  ( 124.5233095260452400, 3.110602869834276500E-015, -25.39999999999999500 ) ) ;
#301 = CIRCLE ( 'NONE', #137, 109.8999999999999900 ) ;
#302 = CARTESIAN_POINT ( 'NONE',  ( -23.57821755690764200, 0.0000000000000000000, 0.0000000000000000000 ) ) ;
#303 = UNCERTAINTY_MEASURE_WITH_UNIT (LENGTH_MEASURE( 1.000000000000000100E-005 ), #265, 'distance_accuracy_value', 'NONE');
#304 = AXIS2_PLACEMENT_3D ( 'NONE', #308, #66, #203 ) ;
#305 = ORIENTED_EDGE ( 'NONE', *, *, #25, .T. ) ;
#306 = CARTESIAN_POINT ( 'NONE',  ( 452.1217824430913800, 0.0000000000000000000, -2.447479442962767300E-015 ) ) ;
#307 = ORIENTED_EDGE ( 'NONE', *, *, #25, .F. ) ;
#308 = CARTESIAN_POINT ( 'NONE',  ( 124.5233095260452400, 0.0000000000000000000, 0.0000000000000000000 ) ) ;
#309 = FILL_AREA_STYLE ('',( #275 ) ) ;
#310 = EDGE_CURVE ( 'NONE', #189, #78, #112, .T. ) ;
#311 = DIRECTION ( 'NONE',  ( 0.0000000000000000000, -1.224646799147353200E-016, 1.000000000000000000 ) ) ;
#312 = SPHERICAL_SURFACE ( 'NONE', #110, 93.10000000000101700 ) ;
#313 = ORIENTED_EDGE ( 'NONE', *, *, #193, .F. ) ;
#314 = DIRECTION ( 'NONE',  ( 0.0000000000000000000, 0.0000000000000000000, 1.000000000000000000 ) ) ;
#315 =( GEOMETRIC_REPRESENTATION_CONTEXT ( 3 ) GLOBAL_UNCERTAINTY_ASSIGNED_CONTEXT ( ( #208 ) ) GLOBAL_UNIT_ASSIGNED_CONTEXT ( ( #84, #266, #296 ) ) REPRESENTATION_CONTEXT ( 'NONE', 'WORKASPACE' ) );
#316 = LINE ( 'NONE', #300, #170 ) ;
#317 = STYLED_ITEM ( 'NONE', ( #238 ), #289 ) ;
#318 = PRODUCT_DEFINITION_SHAPE ( 'NONE', 'NONE',  #180 ) ;
#319 = CIRCLE ( 'NONE', #22, 376.3000000000000100 ) ;
#320 = VERTEX_POINT ( 'NONE', #67 ) ;
#321 = SPHERICAL_SURFACE ( 'NONE', #343, 109.8999999999999900 ) ;
#322 = ORIENTED_EDGE ( 'NONE', *, *, #175, .T. ) ;
#323 = EDGE_CURVE ( 'NONE', #185, #328, #77, .T. ) ;
#324 =( NAMED_UNIT ( * ) PLANE_ANGLE_UNIT ( ) SI_UNIT ( $, .RADIAN. ) );
#325 =( LENGTH_UNIT ( ) NAMED_UNIT ( * ) SI_UNIT ( .MILLI., .METRE. ) );
#326 = COLOUR_RGB ( '',1.000000000000000000, 1.000000000000000000, 1.000000000000000000 ) ;
#327 = EDGE_LOOP ( 'NONE', ( #268, #190, #251 ) ) ;
#328 = VERTEX_POINT ( 'NONE', #148 ) ;
#329 = ADVANCED_FACE ( 'NONE', ( #45 ), #158, .T. ) ;
#330 = ADVANCED_FACE ( 'NONE', ( #97 ), #321, .T. ) ;
#331 = EDGE_CURVE ( 'NONE', #328, #346, #182, .T. ) ;
#332 = CARTESIAN_POINT ( 'NONE',  ( 452.1217824430913800, 0.0000000000000000000, -2.447479442962767300E-015 ) ) ;
#333 = CARTESIAN_POINT ( 'NONE',  ( 257.6217824430913800, 0.0000000000000000000, 2.168404344971008900E-016 ) ) ;
#334 = ADVANCED_FACE ( 'NONE', ( #162 ), #312, .T. ) ;
#335 = CARTESIAN_POINT ( 'NONE',  ( 347.1899129360305700, 3.110602869834281600E-015, -25.40000000000004100 ) ) ;
#336 = PRODUCT ( '145089', '145089', '', ( #160 ) ) ;
#337 = FACE_OUTER_BOUND ( 'NONE', #277, .T. ) ;
#338 = ORIENTED_EDGE ( 'NONE', *, *, #310, .T. ) ;
#339 = DIRECTION ( 'NONE',  ( 0.0000000000000000000, 0.0000000000000000000, 1.000000000000000000 ) ) ;
#340 = SPHERICAL_SURFACE ( 'NONE', #204, 93.10000000000101700 ) ;
#341 = EDGE_LOOP ( 'NONE', ( #70, #119, #198 ) ) ;
#342 = CARTESIAN_POINT ( 'NONE',  ( 257.6217824430913800, 0.0000000000000000000, 2.168404344971008900E-016 ) ) ;
#343 = AXIS2_PLACEMENT_3D ( 'NONE', #56, #159, #188 ) ;
#344 = EDGE_CURVE ( 'NONE', #320, #346, #41, .T. ) ;
#345 = UNCERTAINTY_MEASURE_WITH_UNIT (LENGTH_MEASURE( 1.000000000000000100E-005 ), #145, 'distance_accuracy_value', 'NONE');
#346 = VERTEX_POINT ( 'NONE', #134 ) ;
#347 = FACE_OUTER_BOUND ( 'NONE', #256, .T. ) ;
ENDSEC;
END-ISO-10303-21;
