ISO-10303-21;
HEADER;
FILE_DESCRIPTION (( 'STEP AP214' ),
    '1' );
FILE_NAME ('145081.STEP',
    '2019-05-16T05:27:46',
    ( 'user' ),
    ( 'Î¢ÈíÖÐ¹ú' ),
    'SwSTEP 2.0',
    'SolidWorks 2016',
    '' );
FILE_SCHEMA (( 'AUTOMOTIVE_DESIGN' ));
ENDSEC;

DATA;
#1 = ORIENTED_EDGE ( 'NONE', *, *, #289, .T. ) ;
#2 = PRODUCT_DEFINITION_CONTEXT ( 'detailed design', #295, 'design' ) ;
#3 = CARTESIAN_POINT ( 'NONE',  ( 131.8567089185515000, 0.0000000000000000000, 2.581791628953781800E-014 ) ) ;
#4 = CIRCLE ( 'NONE', #118, 118.3249999999999900 ) ;
#5 = SPHERICAL_SURFACE ( 'NONE', #346, 156.5339999999999900 ) ;
#6 = DIRECTION ( 'NONE',  ( -1.000000000000000000, -0.0000000000000000000, -0.0000000000000000000 ) ) ;
#7 = PRODUCT_RELATED_PRODUCT_CATEGORY ( 'part', '', ( #122 ) ) ;
#8 = ORIENTED_EDGE ( 'NONE', *, *, #50, .F. ) ;
#9 = FACE_OUTER_BOUND ( 'NONE', #199, .T. ) ;
#10 = AXIS2_PLACEMENT_3D ( 'NONE', #143, #171, #158 ) ;
#11 = ADVANCED_FACE ( 'NONE', ( #315 ), #336, .T. ) ;
#12 = AXIS2_PLACEMENT_3D ( 'NONE', #221, #164, #112 ) ;
#13 = VERTEX_POINT ( 'NONE', #72 ) ;
#14 = SPHERICAL_SURFACE ( 'NONE', #106, 118.3249999999999900 ) ;
#15 = CIRCLE ( 'NONE', #284, 156.5339999999999900 ) ;
#16 = AXIS2_PLACEMENT_3D ( 'NONE', #275, #206, #278 ) ;
#17 = ORIENTED_EDGE ( 'NONE', *, *, #330, .T. ) ;
#18 = DIRECTION ( 'NONE',  ( 0.0000000000000000000, -1.224646799147353200E-016, 1.000000000000000000 ) ) ;
#19 = DIRECTION ( 'NONE',  ( 0.0000000000000000000, 0.0000000000000000000, -1.000000000000000000 ) ) ;
#20 = SURFACE_SIDE_STYLE ('',( #80 ) ) ;
#21 = CARTESIAN_POINT ( 'NONE',  ( 124.5233095260452400, 3.061616997868379100E-015, -24.99999999999996800 ) ) ;
#22 = FACE_OUTER_BOUND ( 'NONE', #190, .T. ) ;
#23 =( NAMED_UNIT ( * ) PLANE_ANGLE_UNIT ( ) SI_UNIT ( $, .RADIAN. ) );
#24 = AXIS2_PLACEMENT_3D ( 'NONE', #225, #170, #169 ) ;
#25 = CARTESIAN_POINT ( 'NONE',  ( 251.5774586988380900, 3.061616997868375900E-015, -24.99999999999992200 ) ) ;
#26 = DIRECTION ( 'NONE',  ( 0.0000000000000000000, -1.000000000000000000, 0.0000000000000000000 ) ) ;
#27 = FACE_OUTER_BOUND ( 'NONE', #329, .T. ) ;
#28 = PRODUCT_DEFINITION_FORMATION_WITH_SPECIFIED_SOURCE ( 'ÈÎºÎ', '', #122, .NOT_KNOWN. ) ;
#29 = EDGE_LOOP ( 'NONE', ( #79, #110, #78 ) ) ;
#30 = DIRECTION ( 'NONE',  ( 0.0000000000000000000, 1.000000000000000000, 0.0000000000000000000 ) ) ;
#31 = CARTESIAN_POINT ( 'NONE',  ( 399.4057089185515100, 0.0000000000000000000, -1.230951218693813300E-013 ) ) ;
#32 = AXIS2_PLACEMENT_3D ( 'NONE', #31, #239, #99 ) ;
#33 = DIRECTION ( 'NONE',  ( 0.0000000000000000000, 0.0000000000000000000, 1.000000000000000000 ) ) ;
#34 = VERTEX_POINT ( 'NONE', #87 ) ;
#35 = SPHERICAL_SURFACE ( 'NONE', #172, 118.3249999999999900 ) ;
#36 = ORIENTED_EDGE ( 'NONE', *, *, #266, .F. ) ;
#37 = CARTESIAN_POINT ( 'NONE',  ( 131.8567089185515000, 0.0000000000000000000, 2.581791628953781800E-014 ) ) ;
#38 = ADVANCED_FACE ( 'NONE', ( #27 ), #180, .T. ) ;
#39 = UNCERTAINTY_MEASURE_WITH_UNIT (LENGTH_MEASURE( 1.000000000000000100E-005 ), #176, 'distance_accuracy_value', 'NONE');
#40 = DIRECTION ( 'NONE',  ( 0.0000000000000000000, 0.0000000000000000000, 1.000000000000000000 ) ) ;
#41 = AXIS2_PLACEMENT_3D ( 'NONE', #187, #120, #121 ) ;
#42 = SPHERICAL_SURFACE ( 'NONE', #310, 156.5339999999999900 ) ;
#43 = ORIENTED_EDGE ( 'NONE', *, *, #276, .T. ) ;
#44 = SHAPE_DEFINITION_REPRESENTATION ( #57, #177 ) ;
#45 = COLOUR_RGB ( '',1.000000000000000000, 1.000000000000000000, 1.000000000000000000 ) ;
#46 = MECHANICAL_DESIGN_GEOMETRIC_PRESENTATION_REPRESENTATION (  '', ( #328 ), #230 ) ;
#47 = ORIENTED_EDGE ( 'NONE', *, *, #59, .F. ) ;
#48 = FACE_OUTER_BOUND ( 'NONE', #134, .T. ) ;
#49 = ORIENTED_EDGE ( 'NONE', *, *, #104, .F. ) ;
#50 = EDGE_CURVE ( 'NONE', #182, #100, #214, .T. ) ;
#51 = CIRCLE ( 'NONE', #16, 366.2450000000000000 ) ;
#52 = ORIENTED_EDGE ( 'NONE', *, *, #235, .F. ) ;
#53 = UNCERTAINTY_MEASURE_WITH_UNIT (LENGTH_MEASURE( 1.000000000000000100E-005 ), #224, 'distance_accuracy_value', 'NONE');
#54 = PRODUCT_DEFINITION ( 'Î´Öª', '', #28, #2 ) ;
#55 = DIRECTION ( 'NONE',  ( 0.0000000000000000000, 0.0000000000000000000, -1.000000000000000000 ) ) ;
#56 = DIRECTION ( 'NONE',  ( -0.0000000000000000000, 1.000000000000000000, 1.224646799147353200E-016 ) ) ;
#57 = PRODUCT_DEFINITION_SHAPE ( 'NONE', 'NONE',  #54 ) ;
#58 = ORIENTED_EDGE ( 'NONE', *, *, #114, .T. ) ;
#59 = EDGE_CURVE ( 'NONE', #13, #238, #246, .T. ) ;
#60 = SURFACE_STYLE_USAGE ( .BOTH. , #337 ) ;
#61 =( NAMED_UNIT ( * ) SI_UNIT ( $, .STERADIAN. ) SOLID_ANGLE_UNIT ( ) );
#62 = CARTESIAN_POINT ( 'NONE',  ( 124.5233095260452400, 0.0000000000000000000, 24.99999999999996800 ) ) ;
#63 = DIRECTION ( 'NONE',  ( 0.0000000000000000000, 1.000000000000000000, 0.0000000000000000000 ) ) ;
#64 = ORIENTED_EDGE ( 'NONE', *, *, #297, .T. ) ;
#65 = CARTESIAN_POINT ( 'NONE',  ( 251.5774586988380900, 0.0000000000000000000, 24.99999999999992200 ) ) ;
#66 = AXIS2_PLACEMENT_3D ( 'NONE', #285, #101, #40 ) ;
#67 = ADVANCED_FACE ( 'NONE', ( #145 ), #277, .F. ) ;
#68 = DIRECTION ( 'NONE',  ( 0.0000000000000000000, 1.000000000000000000, 0.0000000000000000000 ) ) ;
#69 = ADVANCED_FACE ( 'NONE', ( #140 ), #133, .T. ) ;
#70 = DIRECTION ( 'NONE',  ( 0.0000000000000000000, 0.0000000000000000000, 1.000000000000000000 ) ) ;
#71 = ORIENTED_EDGE ( 'NONE', *, *, #335, .F. ) ;
#72 = CARTESIAN_POINT ( 'NONE',  ( 247.5105269489131100, 0.0000000000000000000, 24.99999999999996400 ) ) ;
#73 = DIRECTION ( 'NONE',  ( -1.000000000000000000, -0.0000000000000000000, -0.0000000000000000000 ) ) ;
#74 = PRESENTATION_LAYER_ASSIGNMENT (  '', '', ( #98 ) ) ;
#75 = CARTESIAN_POINT ( 'NONE',  ( 251.5774586988380900, 0.0000000000000000000, 0.0000000000000000000 ) ) ;
#76 = ADVANCED_FACE ( 'NONE', ( #22 ), #188, .T. ) ;
#77 = FACE_OUTER_BOUND ( 'NONE', #263, .T. ) ;
#78 = ORIENTED_EDGE ( 'NONE', *, *, #338, .F. ) ;
#79 = ORIENTED_EDGE ( 'NONE', *, *, #162, .T. ) ;
#80 = SURFACE_STYLE_FILL_AREA ( #111 ) ;
#81 = AXIS2_PLACEMENT_3D ( 'NONE', #210, #279, #97 ) ;
#82 =( GEOMETRIC_REPRESENTATION_CONTEXT ( 3 ) GLOBAL_UNCERTAINTY_ASSIGNED_CONTEXT ( ( #53 ) ) GLOBAL_UNIT_ASSIGNED_CONTEXT ( ( #224, #255, #232 ) ) REPRESENTATION_CONTEXT ( 'NONE', 'WORKASPACE' ) );
#83 = FACE_OUTER_BOUND ( 'NONE', #29, .T. ) ;
#84 = EDGE_CURVE ( 'NONE', #13, #34, #343, .T. ) ;
#85 = VERTEX_POINT ( 'NONE', #119 ) ;
#86 = DIRECTION ( 'NONE',  ( 0.0000000000000000000, 0.0000000000000000000, -1.000000000000000000 ) ) ;
#87 = CARTESIAN_POINT ( 'NONE',  ( 244.8809757655704700, 0.0000000000000000000, 24.99999999999992900 ) ) ;
#88 = CARTESIAN_POINT ( 'NONE',  ( -113.8132910814485000, 0.0000000000000000000, 0.0000000000000000000 ) ) ;
#89 = ORIENTED_EDGE ( 'NONE', *, *, #215, .F. ) ;
#90 = DIRECTION ( 'NONE',  ( 0.0000000000000000000, 0.0000000000000000000, 1.000000000000000000 ) ) ;
#91 = CIRCLE ( 'NONE', #212, 25.00000000000001100 ) ;
#92 = CARTESIAN_POINT ( 'NONE',  ( 251.5774586988380900, 0.0000000000000000000, 0.0000000000000000000 ) ) ;
#93 = DIRECTION ( 'NONE',  ( -1.000000000000000000, -0.0000000000000000000, -0.0000000000000000000 ) ) ;
#94 = DIRECTION ( 'NONE',  ( -1.000000000000000000, -0.0000000000000000000, -0.0000000000000000000 ) ) ;
#95 = ORIENTED_EDGE ( 'NONE', *, *, #317, .F. ) ;
#96 = DIRECTION ( 'NONE',  ( 0.0000000000000000000, 0.0000000000000000000, 1.000000000000000000 ) ) ;
#97 = DIRECTION ( 'NONE',  ( 0.0000000000000000000, 0.0000000000000000000, 1.000000000000000000 ) ) ;
#98 = STYLED_ITEM ( 'NONE', ( #205 ), #152 ) ;
#99 = DIRECTION ( 'NONE',  ( 0.0000000000000000000, -1.224646799147353200E-016, 1.000000000000000000 ) ) ;
#100 = VERTEX_POINT ( 'NONE', #25 ) ;
#101 = DIRECTION ( 'NONE',  ( 0.0000000000000000000, 1.000000000000000000, 0.0000000000000000000 ) ) ;
#102 = VECTOR ( 'NONE', #103, 1000.000000000000000 ) ;
#103 = DIRECTION ( 'NONE',  ( -1.000000000000000000, -0.0000000000000000000, -0.0000000000000000000 ) ) ;
#104 = EDGE_CURVE ( 'NONE', #116, #100, #51, .T. ) ;
#105 = ORIENTED_EDGE ( 'NONE', *, *, #317, .T. ) ;
#106 = AXIS2_PLACEMENT_3D ( 'NONE', #178, #30, #33 ) ;
#107 = DIRECTION ( 'NONE',  ( 0.0000000000000000000, -1.000000000000000000, 0.0000000000000000000 ) ) ;
#108 = DIRECTION ( 'NONE',  ( -0.0000000000000000000, 1.000000000000000000, 1.224646799147353200E-016 ) ) ;
#109 = VERTEX_POINT ( 'NONE', #302 ) ;
#110 = ORIENTED_EDGE ( 'NONE', *, *, #266, .T. ) ;
#111 = FILL_AREA_STYLE ('',( #130 ) ) ;
#112 = DIRECTION ( 'NONE',  ( 1.000000000000000000, 0.0000000000000000000, 0.0000000000000000000 ) ) ;
#113 = VERTEX_POINT ( 'NONE', #272 ) ;
#114 = EDGE_CURVE ( 'NONE', #197, #13, #258, .T. ) ;
#115 = FACE_OUTER_BOUND ( 'NONE', #274, .T. ) ;
#116 = VERTEX_POINT ( 'NONE', #283 ) ;
#117 = FILL_AREA_STYLE ('',( #339 ) ) ;
#118 = AXIS2_PLACEMENT_3D ( 'NONE', #165, #108, #314 ) ;
#119 = CARTESIAN_POINT ( 'NONE',  ( 244.8809757655704700, 3.061616997868374000E-015, -25.00000000000005000 ) ) ;
#120 = DIRECTION ( 'NONE',  ( 0.0000000000000000000, -1.000000000000000000, 0.0000000000000000000 ) ) ;
#121 = DIRECTION ( 'NONE',  ( 0.0000000000000000000, 0.0000000000000000000, -1.000000000000000000 ) ) ;
#122 = PRODUCT ( '145081', '145081', '', ( #244 ) ) ;
#123 = UNCERTAINTY_MEASURE_WITH_UNIT (LENGTH_MEASURE( 1.000000000000000100E-005 ), #147, 'distance_accuracy_value', 'NONE');
#124 = ORIENTED_EDGE ( 'NONE', *, *, #292, .T. ) ;
#125 = FILL_AREA_STYLE ('',( #185 ) ) ;
#126 = AXIS2_PLACEMENT_3D ( 'NONE', #189, #326, #296 ) ;
#127 = CARTESIAN_POINT ( 'NONE',  ( -0.5519199926577972300, 3.061616997868379100E-015, -24.99999999999996800 ) ) ;
#128 = DIRECTION ( 'NONE',  ( -1.000000000000000000, -0.0000000000000000000, -0.0000000000000000000 ) ) ;
#129 = LINE ( 'NONE', #21, #166 ) ;
#130 = FILL_AREA_STYLE_COLOUR ( '', #157 ) ;
#131 = EDGE_CURVE ( 'NONE', #182, #113, #327, .T. ) ;
#132 = DIRECTION ( 'NONE',  ( 0.0000000000000000000, 0.0000000000000000000, 1.000000000000000000 ) ) ;
#133 = CYLINDRICAL_SURFACE ( 'NONE', #81, 24.99999999999996800 ) ;
#134 = EDGE_LOOP ( 'NONE', ( #259, #137, #248, #324 ) ) ;
#135 = ADVANCED_FACE ( 'NONE', ( #77 ), #228, .T. ) ;
#136 =( LENGTH_UNIT ( ) NAMED_UNIT ( * ) SI_UNIT ( .MILLI., .METRE. ) );
#137 = ORIENTED_EDGE ( 'NONE', *, *, #235, .T. ) ;
#138 = AXIS2_PLACEMENT_3D ( 'NONE', #312, #56, #18 ) ;
#139 = SURFACE_STYLE_FILL_AREA ( #117 ) ;
#140 = FACE_OUTER_BOUND ( 'NONE', #243, .T. ) ;
#141 = CIRCLE ( 'NONE', #192, 24.99999999999992200 ) ;
#142 = AXIS2_PLACEMENT_3D ( 'NONE', #75, #94, #96 ) ;
#143 = CARTESIAN_POINT ( 'NONE',  ( 124.5233095260452400, 0.0000000000000000000, 0.0000000000000000000 ) ) ;
#144 = DIRECTION ( 'NONE',  ( -1.000000000000000000, -0.0000000000000000000, -0.0000000000000000000 ) ) ;
#145 = FACE_OUTER_BOUND ( 'NONE', #151, .T. ) ;
#146 = CIRCLE ( 'NONE', #313, 24.99999999999996400 ) ;
#147 =( LENGTH_UNIT ( ) NAMED_UNIT ( * ) SI_UNIT ( .MILLI., .METRE. ) );
#148 = SURFACE_STYLE_FILL_AREA ( #125 ) ;
#149 = AXIS2_PLACEMENT_3D ( 'NONE', #203, #68, #132 ) ;
#150 = CIRCLE ( 'NONE', #32, 156.5339999999999900 ) ;
#151 = EDGE_LOOP ( 'NONE', ( #202, #43, #64 ) ) ;
#152 = MANIFOLD_SOLID_BREP ( 'Ðý×ª3', #168 ) ;
#153 = DIRECTION ( 'NONE',  ( 0.0000000000000000000, 0.0000000000000000000, 1.000000000000000000 ) ) ;
#154 = CIRCLE ( 'NONE', #307, 366.2450000000000000 ) ;
#155 = DIRECTION ( 'NONE',  ( 0.0000000000000000000, 1.000000000000000000, 0.0000000000000000000 ) ) ;
#156 = ADVANCED_FACE ( 'NONE', ( #83 ), #5, .T. ) ;
#157 = COLOUR_RGB ( '',1.000000000000000000, 1.000000000000000000, 1.000000000000000000 ) ;
#158 = DIRECTION ( 'NONE',  ( 0.0000000000000000000, 0.0000000000000000000, 1.000000000000000000 ) ) ;
#159 = PRESENTATION_LAYER_ASSIGNMENT (  '', '', ( #167 ) ) ;
#160 = SURFACE_SIDE_STYLE ('',( #148 ) ) ;
#161 =( NAMED_UNIT ( * ) PLANE_ANGLE_UNIT ( ) SI_UNIT ( $, .RADIAN. ) );
#162 = EDGE_CURVE ( 'NONE', #34, #85, #287, .T. ) ;
#163 = CIRCLE ( 'NONE', #138, 118.3249999999999900 ) ;
#164 = DIRECTION ( 'NONE',  ( 0.0000000000000000000, 0.0000000000000000000, 1.000000000000000000 ) ) ;
#165 = CARTESIAN_POINT ( 'NONE',  ( 131.8567089185515000, 0.0000000000000000000, 2.581791628953781800E-014 ) ) ;
#166 = VECTOR ( 'NONE', #237, 1000.000000000000000 ) ;
#167 = STYLED_ITEM ( 'NONE', ( #322 ), #177 ) ;
#168 = CLOSED_SHELL ( 'NONE', ( #281, #11, #67, #290, #135, #38 ) ) ;
#169 = DIRECTION ( 'NONE',  ( 0.0000000000000000000, 0.0000000000000000000, 1.000000000000000000 ) ) ;
#170 = DIRECTION ( 'NONE',  ( -1.000000000000000000, -0.0000000000000000000, -0.0000000000000000000 ) ) ;
#171 = DIRECTION ( 'NONE',  ( -1.000000000000000000, -0.0000000000000000000, -0.0000000000000000000 ) ) ;
#172 = AXIS2_PLACEMENT_3D ( 'NONE', #200, #207, #153 ) ;
#173 = ORIENTED_EDGE ( 'NONE', *, *, #114, .F. ) ;
#174 = CYLINDRICAL_SURFACE ( 'NONE', #10, 24.99999999999996800 ) ;
#175 = ORIENTED_EDGE ( 'NONE', *, *, #131, .F. ) ;
#176 =( LENGTH_UNIT ( ) NAMED_UNIT ( * ) SI_UNIT ( .MILLI., .METRE. ) );
#177 = ADVANCED_BREP_SHAPE_REPRESENTATION ( '145081', ( #280, #152, #12 ), #252 ) ;
#178 = CARTESIAN_POINT ( 'NONE',  ( 131.8567089185515000, 0.0000000000000000000, 2.581791628953781800E-014 ) ) ;
#179 =( NAMED_UNIT ( * ) SI_UNIT ( $, .STERADIAN. ) SOLID_ANGLE_UNIT ( ) );
#180 = SPHERICAL_SURFACE ( 'NONE', #66, 366.2450000000000000 ) ;
#181 =( GEOMETRIC_REPRESENTATION_CONTEXT ( 3 ) GLOBAL_UNCERTAINTY_ASSIGNED_CONTEXT ( ( #123 ) ) GLOBAL_UNIT_ASSIGNED_CONTEXT ( ( #147, #161, #61 ) ) REPRESENTATION_CONTEXT ( 'NONE', 'WORKASPACE' ) );
#182 = VERTEX_POINT ( 'NONE', #65 ) ;
#183 = DIRECTION ( 'NONE',  ( 0.0000000000000000000, 0.0000000000000000000, 1.000000000000000000 ) ) ;
#184 = ADVANCED_FACE ( 'NONE', ( #115 ), #35, .T. ) ;
#185 = FILL_AREA_STYLE_COLOUR ( '', #309 ) ;
#186 = AXIS2_PLACEMENT_3D ( 'NONE', #251, #342, #333 ) ;
#187 = CARTESIAN_POINT ( 'NONE',  ( 131.8567089185515000, 0.0000000000000000000, 2.581791628953781800E-014 ) ) ;
#188 = SPHERICAL_SURFACE ( 'NONE', #247, 118.3249999999999900 ) ;
#189 = CARTESIAN_POINT ( 'NONE',  ( 244.8809757655704700, 0.0000000000000000000, 0.0000000000000000000 ) ) ;
#190 = EDGE_LOOP ( 'NONE', ( #173, #105, #47 ) ) ;
#191 = DIRECTION ( 'NONE',  ( 0.0000000000000000000, 1.000000000000000000, 0.0000000000000000000 ) ) ;
#192 = AXIS2_PLACEMENT_3D ( 'NONE', #92, #253, #236 ) ;
#193 = CARTESIAN_POINT ( 'NONE',  ( -0.5519199926577972300, 0.0000000000000000000, 0.0000000000000000000 ) ) ;
#194 = ORIENTED_EDGE ( 'NONE', *, *, #131, .T. ) ;
#195 = MECHANICAL_DESIGN_GEOMETRIC_PRESENTATION_REPRESENTATION (  '', ( #167 ), #82 ) ;
#196 = VECTOR ( 'NONE', #144, 1000.000000000000000 ) ;
#197 = VERTEX_POINT ( 'NONE', #208 ) ;
#198 = EDGE_LOOP ( 'NONE', ( #36, #320, #301 ) ) ;
#199 = EDGE_LOOP ( 'NONE', ( #294, #334, #273 ) ) ;
#200 = CARTESIAN_POINT ( 'NONE',  ( 131.8567089185515000, 0.0000000000000000000, 2.581791628953781800E-014 ) ) ;
#201 = ORIENTED_EDGE ( 'NONE', *, *, #240, .T. ) ;
#202 = ORIENTED_EDGE ( 'NONE', *, *, #282, .F. ) ;
#203 = CARTESIAN_POINT ( 'NONE',  ( 131.8567089185515000, 0.0000000000000000000, 2.581791628953781800E-014 ) ) ;
#204 = AXIS2_PLACEMENT_3D ( 'NONE', #332, #233, #90 ) ;
#205 = PRESENTATION_STYLE_ASSIGNMENT (( #241 ) ) ;
#206 = DIRECTION ( 'NONE',  ( -0.0000000000000000000, 1.000000000000000000, 1.224646799147353200E-016 ) ) ;
#207 = DIRECTION ( 'NONE',  ( 0.0000000000000000000, 1.000000000000000000, 0.0000000000000000000 ) ) ;
#208 = CARTESIAN_POINT ( 'NONE',  ( 250.1817089185515200, 0.0000000000000000000, 3.306323291499334400E-014 ) ) ;
#209 = ORIENTED_EDGE ( 'NONE', *, *, #297, .F. ) ;
#210 = CARTESIAN_POINT ( 'NONE',  ( 124.5233095260452400, 0.0000000000000000000, 0.0000000000000000000 ) ) ;
#211 = PRESENTATION_STYLE_ASSIGNMENT (( #345 ) ) ;
#212 = AXIS2_PLACEMENT_3D ( 'NONE', #213, #93, #227 ) ;
#213 = CARTESIAN_POINT ( 'NONE',  ( 247.5105269489131100, 0.0000000000000000000, 0.0000000000000000000 ) ) ;
#214 = CIRCLE ( 'NONE', #142, 24.99999999999992200 ) ;
#215 = EDGE_CURVE ( 'NONE', #85, #34, #291, .T. ) ;
#216 =( NAMED_UNIT ( * ) SI_UNIT ( $, .STERADIAN. ) SOLID_ANGLE_UNIT ( ) );
#217 = ADVANCED_FACE ( 'NONE', ( #223 ), #42, .T. ) ;
#218 = FACE_OUTER_BOUND ( 'NONE', #316, .T. ) ;
#219 = APPLICATION_CONTEXT ( 'automotive_design' ) ;
#220 = VECTOR ( 'NONE', #128, 1000.000000000000000 ) ;
#221 = CARTESIAN_POINT ( 'NONE',  ( 0.0000000000000000000, 0.0000000000000000000, 0.0000000000000000000 ) ) ;
#222 = ORIENTED_EDGE ( 'NONE', *, *, #330, .F. ) ;
#223 = FACE_OUTER_BOUND ( 'NONE', #198, .T. ) ;
#224 =( LENGTH_UNIT ( ) NAMED_UNIT ( * ) SI_UNIT ( .MILLI., .METRE. ) );
#225 = CARTESIAN_POINT ( 'NONE',  ( 247.5105269489131100, 0.0000000000000000000, 0.0000000000000000000 ) ) ;
#226 = MECHANICAL_DESIGN_GEOMETRIC_PRESENTATION_REPRESENTATION (  '', ( #98 ), #181 ) ;
#227 = DIRECTION ( 'NONE',  ( 0.0000000000000000000, 0.0000000000000000000, 1.000000000000000000 ) ) ;
#228 = CYLINDRICAL_SURFACE ( 'NONE', #204, 24.99999999999996800 ) ;
#229 = ORIENTED_EDGE ( 'NONE', *, *, #50, .T. ) ;
#230 =( GEOMETRIC_REPRESENTATION_CONTEXT ( 3 ) GLOBAL_UNCERTAINTY_ASSIGNED_CONTEXT ( ( #39 ) ) GLOBAL_UNIT_ASSIGNED_CONTEXT ( ( #176, #23, #179 ) ) REPRESENTATION_CONTEXT ( 'NONE', 'WORKASPACE' ) );
#231 = DIRECTION ( 'NONE',  ( 0.0000000000000000000, 0.0000000000000000000, 1.000000000000000000 ) ) ;
#232 =( NAMED_UNIT ( * ) SI_UNIT ( $, .STERADIAN. ) SOLID_ANGLE_UNIT ( ) );
#233 = DIRECTION ( 'NONE',  ( -1.000000000000000000, -0.0000000000000000000, -0.0000000000000000000 ) ) ;
#234 = CARTESIAN_POINT ( 'NONE',  ( 247.5105269489131100, 3.061616997868378700E-015, -24.99999999999996400 ) ) ;
#235 = EDGE_CURVE ( 'NONE', #238, #85, #129, .T. ) ;
#236 = DIRECTION ( 'NONE',  ( 0.0000000000000000000, 0.0000000000000000000, 1.000000000000000000 ) ) ;
#237 = DIRECTION ( 'NONE',  ( -1.000000000000000000, -0.0000000000000000000, -0.0000000000000000000 ) ) ;
#238 = VERTEX_POINT ( 'NONE', #234 ) ;
#239 = DIRECTION ( 'NONE',  ( -0.0000000000000000000, 1.000000000000000000, 1.224646799147353200E-016 ) ) ;
#240 = EDGE_CURVE ( 'NONE', #100, #182, #141, .T. ) ;
#241 = SURFACE_STYLE_USAGE ( .BOTH. , #160 ) ;
#242 = CIRCLE ( 'NONE', #264, 25.00000000000001100 ) ;
#243 = EDGE_LOOP ( 'NONE', ( #52, #1, #265, #89 ) ) ;
#244 = PRODUCT_CONTEXT ( 'NONE', #219, 'mechanical' ) ;
#245 = ADVANCED_FACE ( 'NONE', ( #48 ), #174, .T. ) ;
#246 = CIRCLE ( 'NONE', #24, 24.99999999999996400 ) ;
#247 = AXIS2_PLACEMENT_3D ( 'NONE', #3, #63, #70 ) ;
#248 = ORIENTED_EDGE ( 'NONE', *, *, #162, .F. ) ;
#249 = VERTEX_POINT ( 'NONE', #323 ) ;
#250 = DIRECTION ( 'NONE',  ( 0.0000000000000000000, -1.000000000000000000, 0.0000000000000000000 ) ) ;
#251 = CARTESIAN_POINT ( 'NONE',  ( -113.8132910814485000, 0.0000000000000000000, 0.0000000000000000000 ) ) ;
#252 =( GEOMETRIC_REPRESENTATION_CONTEXT ( 3 ) GLOBAL_UNCERTAINTY_ASSIGNED_CONTEXT ( ( #325 ) ) GLOBAL_UNIT_ASSIGNED_CONTEXT ( ( #136, #254, #216 ) ) REPRESENTATION_CONTEXT ( 'NONE', 'WORKASPACE' ) );
#253 = DIRECTION ( 'NONE',  ( -1.000000000000000000, -0.0000000000000000000, -0.0000000000000000000 ) ) ;
#254 =( NAMED_UNIT ( * ) PLANE_ANGLE_UNIT ( ) SI_UNIT ( $, .RADIAN. ) );
#255 =( NAMED_UNIT ( * ) PLANE_ANGLE_UNIT ( ) SI_UNIT ( $, .RADIAN. ) );
#256 = DIRECTION ( 'NONE',  ( -1.000000000000000000, -0.0000000000000000000, -0.0000000000000000000 ) ) ;
#257 = CARTESIAN_POINT ( 'NONE',  ( 244.8809757655704700, 0.0000000000000000000, 0.0000000000000000000 ) ) ;
#258 = CIRCLE ( 'NONE', #41, 118.3249999999999900 ) ;
#259 = ORIENTED_EDGE ( 'NONE', *, *, #59, .T. ) ;
#260 = DIRECTION ( 'NONE',  ( 0.0000000000000000000, 0.0000000000000000000, 1.000000000000000000 ) ) ;
#261 = PRESENTATION_LAYER_ASSIGNMENT (  '', '', ( #328 ) ) ;
#262 = DIRECTION ( 'NONE',  ( 0.0000000000000000000, 0.0000000000000000000, 1.000000000000000000 ) ) ;
#263 = EDGE_LOOP ( 'NONE', ( #318, #201, #194, #209 ) ) ;
#264 = AXIS2_PLACEMENT_3D ( 'NONE', #304, #299, #303 ) ;
#265 = ORIENTED_EDGE ( 'NONE', *, *, #84, .T. ) ;
#266 = EDGE_CURVE ( 'NONE', #85, #249, #150, .T. ) ;
#267 = APPLICATION_PROTOCOL_DEFINITION ( 'draft international standard', 'automotive_design', 1998, #219 ) ;
#268 = ORIENTED_EDGE ( 'NONE', *, *, #289, .F. ) ;
#269 = VERTEX_POINT ( 'NONE', #300 ) ;
#270 = ORIENTED_EDGE ( 'NONE', *, *, #240, .F. ) ;
#271 = AXIS2_PLACEMENT_3D ( 'NONE', #193, #256, #308 ) ;
#272 = CARTESIAN_POINT ( 'NONE',  ( 247.5105269489131100, 0.0000000000000000000, 24.99999999999998600 ) ) ;
#273 = ORIENTED_EDGE ( 'NONE', *, *, #335, .T. ) ;
#274 = EDGE_LOOP ( 'NONE', ( #95, #58, #268 ) ) ;
#275 = CARTESIAN_POINT ( 'NONE',  ( -113.8132910814485000, 0.0000000000000000000, 0.0000000000000000000 ) ) ;
#276 = EDGE_CURVE ( 'NONE', #109, #269, #163, .T. ) ;
#277 = SPHERICAL_SURFACE ( 'NONE', #149, 118.3249999999999900 ) ;
#278 = DIRECTION ( 'NONE',  ( 0.0000000000000000000, -1.224646799147353200E-016, 1.000000000000000000 ) ) ;
#279 = DIRECTION ( 'NONE',  ( -1.000000000000000000, -0.0000000000000000000, -0.0000000000000000000 ) ) ;
#280 = MANIFOLD_SOLID_BREP ( 'Ðý×ª1', #331 ) ;
#281 = ADVANCED_FACE ( 'NONE', ( #218 ), #319, .T. ) ;
#282 = EDGE_CURVE ( 'NONE', #109, #113, #340, .T. ) ;
#283 = CARTESIAN_POINT ( 'NONE',  ( 252.4317089185514900, 0.0000000000000000000, 2.242603834768611700E-014 ) ) ;
#284 = AXIS2_PLACEMENT_3D ( 'NONE', #298, #250, #55 ) ;
#285 = CARTESIAN_POINT ( 'NONE',  ( -113.8132910814485000, 0.0000000000000000000, 0.0000000000000000000 ) ) ;
#286 = CARTESIAN_POINT ( 'NONE',  ( 247.5105269489131100, 0.0000000000000000000, 0.0000000000000000000 ) ) ;
#287 = CIRCLE ( 'NONE', #126, 24.99999999999996800 ) ;
#288 = ORIENTED_EDGE ( 'NONE', *, *, #104, .T. ) ;
#289 = EDGE_CURVE ( 'NONE', #238, #13, #146, .T. ) ;
#290 = ADVANCED_FACE ( 'NONE', ( #9 ), #14, .F. ) ;
#291 = CIRCLE ( 'NONE', #341, 24.99999999999996800 ) ;
#292 = EDGE_CURVE ( 'NONE', #100, #269, #293, .T. ) ;
#293 = LINE ( 'NONE', #127, #196 ) ;
#294 = ORIENTED_EDGE ( 'NONE', *, *, #276, .F. ) ;
#295 = APPLICATION_CONTEXT ( 'automotive_design' ) ;
#296 = DIRECTION ( 'NONE',  ( 0.0000000000000000000, 0.0000000000000000000, 1.000000000000000000 ) ) ;
#297 = EDGE_CURVE ( 'NONE', #269, #113, #91, .T. ) ;
#298 = CARTESIAN_POINT ( 'NONE',  ( 399.4057089185515100, 0.0000000000000000000, -1.230951218693813300E-013 ) ) ;
#299 = DIRECTION ( 'NONE',  ( -1.000000000000000000, -0.0000000000000000000, -0.0000000000000000000 ) ) ;
#300 = CARTESIAN_POINT ( 'NONE',  ( 247.5105269489131100, 3.061616997868382300E-015, -24.99999999999996800 ) ) ;
#301 = ORIENTED_EDGE ( 'NONE', *, *, #338, .T. ) ;
#302 = CARTESIAN_POINT ( 'NONE',  ( 250.1817089185515200, 0.0000000000000000000, 3.306323291499334400E-014 ) ) ;
#303 = DIRECTION ( 'NONE',  ( 0.0000000000000000000, 0.0000000000000000000, 1.000000000000000000 ) ) ;
#304 = CARTESIAN_POINT ( 'NONE',  ( 247.5105269489131100, 0.0000000000000000000, 0.0000000000000000000 ) ) ;
#305 = EDGE_LOOP ( 'NONE', ( #229, #124, #71, #175 ) ) ;
#306 = CARTESIAN_POINT ( 'NONE',  ( -0.5519199926577972300, 0.0000000000000000000, 24.99999999999996800 ) ) ;
#307 = AXIS2_PLACEMENT_3D ( 'NONE', #88, #107, #19 ) ;
#308 = DIRECTION ( 'NONE',  ( 0.0000000000000000000, 0.0000000000000000000, 1.000000000000000000 ) ) ;
#309 = COLOUR_RGB ( '',1.000000000000000000, 1.000000000000000000, 1.000000000000000000 ) ;
#310 = AXIS2_PLACEMENT_3D ( 'NONE', #311, #191, #262 ) ;
#311 = CARTESIAN_POINT ( 'NONE',  ( 399.4057089185515100, 0.0000000000000000000, -1.230951218693813300E-013 ) ) ;
#312 = CARTESIAN_POINT ( 'NONE',  ( 131.8567089185515000, 0.0000000000000000000, 2.581791628953781800E-014 ) ) ;
#313 = AXIS2_PLACEMENT_3D ( 'NONE', #286, #6, #183 ) ;
#314 = DIRECTION ( 'NONE',  ( 0.0000000000000000000, -1.224646799147353200E-016, 1.000000000000000000 ) ) ;
#315 = FACE_OUTER_BOUND ( 'NONE', #305, .T. ) ;
#316 = EDGE_LOOP ( 'NONE', ( #222, #288, #8 ) ) ;
#317 = EDGE_CURVE ( 'NONE', #197, #238, #4, .T. ) ;
#318 = ORIENTED_EDGE ( 'NONE', *, *, #292, .F. ) ;
#319 = SPHERICAL_SURFACE ( 'NONE', #186, 366.2450000000000000 ) ;
#320 = ORIENTED_EDGE ( 'NONE', *, *, #215, .T. ) ;
#321 = AXIS2_PLACEMENT_3D ( 'NONE', #37, #26, #86 ) ;
#322 = PRESENTATION_STYLE_ASSIGNMENT (( #60 ) ) ;
#323 = CARTESIAN_POINT ( 'NONE',  ( 242.8717089185514900, 0.0000000000000000000, -1.135101787664947200E-013 ) ) ;
#324 = ORIENTED_EDGE ( 'NONE', *, *, #84, .F. ) ;
#325 = UNCERTAINTY_MEASURE_WITH_UNIT (LENGTH_MEASURE( 1.000000000000000100E-005 ), #136, 'distance_accuracy_value', 'NONE');
#326 = DIRECTION ( 'NONE',  ( -1.000000000000000000, -0.0000000000000000000, -0.0000000000000000000 ) ) ;
#327 = LINE ( 'NONE', #306, #220 ) ;
#328 = STYLED_ITEM ( 'NONE', ( #211 ), #280 ) ;
#329 = EDGE_LOOP ( 'NONE', ( #49, #17, #270 ) ) ;
#330 = EDGE_CURVE ( 'NONE', #116, #182, #154, .T. ) ;
#331 = CLOSED_SHELL ( 'NONE', ( #76, #245, #156, #217, #69, #184 ) ) ;
#332 = CARTESIAN_POINT ( 'NONE',  ( -0.5519199926577972300, 0.0000000000000000000, 0.0000000000000000000 ) ) ;
#333 = DIRECTION ( 'NONE',  ( 0.0000000000000000000, 0.0000000000000000000, 1.000000000000000000 ) ) ;
#334 = ORIENTED_EDGE ( 'NONE', *, *, #282, .T. ) ;
#335 = EDGE_CURVE ( 'NONE', #113, #269, #242, .T. ) ;
#336 = CYLINDRICAL_SURFACE ( 'NONE', #271, 24.99999999999996800 ) ;
#337 = SURFACE_SIDE_STYLE ('',( #139 ) ) ;
#338 = EDGE_CURVE ( 'NONE', #34, #249, #15, .T. ) ;
#339 = FILL_AREA_STYLE_COLOUR ( '', #45 ) ;
#340 = CIRCLE ( 'NONE', #321, 118.3249999999999900 ) ;
#341 = AXIS2_PLACEMENT_3D ( 'NONE', #257, #73, #231 ) ;
#342 = DIRECTION ( 'NONE',  ( 0.0000000000000000000, 1.000000000000000000, 0.0000000000000000000 ) ) ;
#343 = LINE ( 'NONE', #62, #102 ) ;
#344 = CARTESIAN_POINT ( 'NONE',  ( 399.4057089185515100, 0.0000000000000000000, -1.230951218693813300E-013 ) ) ;
#345 = SURFACE_STYLE_USAGE ( .BOTH. , #20 ) ;
#346 = AXIS2_PLACEMENT_3D ( 'NONE', #344, #155, #260 ) ;
#347 = APPLICATION_PROTOCOL_DEFINITION ( 'draft international standard', 'automotive_design', 1998, #295 ) ;
ENDSEC;
END-ISO-10303-21;
