ISO-10303-21;
HEADER;
FILE_DESCRIPTION (( 'STEP AP214' ),
    '1' );
FILE_NAME ('145077.STEP',
    '2019-05-16T01:46:20',
    ( 'user' ),
    ( 'Î¢ÈíÖÐ¹ú' ),
    'SwSTEP 2.0',
    'SolidWorks 2016',
    '' );
FILE_SCHEMA (( 'AUTOMOTIVE_DESIGN' ));
ENDSEC;

DATA;
#1 = CLOSED_SHELL ( 'NONE', ( #75, #278, #338, #44, #146, #204 ) ) ;
#2 = EDGE_CURVE ( 'NONE', #279, #52, #42, .T. ) ;
#3 = CARTESIAN_POINT ( 'NONE',  ( 674.6090846041470300, 0.0000000000000000000, -1.376148485956547200E-013 ) ) ;
#4 = CARTESIAN_POINT ( 'NONE',  ( 374.4047615639375400, 0.0000000000000000000, 0.0000000000000000000 ) ) ;
#5 = DIRECTION ( 'NONE',  ( 0.0000000000000000000, -1.224646799147353200E-016, 1.000000000000000000 ) ) ;
#6 =( LENGTH_UNIT ( ) NAMED_UNIT ( * ) SI_UNIT ( .MILLI., .METRE. ) );
#7 = VERTEX_POINT ( 'NONE', #150 ) ;
#8 = DIRECTION ( 'NONE',  ( 0.0000000000000000000, 1.000000000000000000, 0.0000000000000000000 ) ) ;
#9 = FILL_AREA_STYLE ('',( #189 ) ) ;
#10 = CARTESIAN_POINT ( 'NONE',  ( 369.9548607699778100, 0.0000000000000000000, 0.0000000000000000000 ) ) ;
#11 = APPLICATION_PROTOCOL_DEFINITION ( 'draft international standard', 'automotive_design', 1998, #37 ) ;
#12 = DIRECTION ( 'NONE',  ( 0.0000000000000000000, 0.0000000000000000000, 1.000000000000000000 ) ) ;
#13 = AXIS2_PLACEMENT_3D ( 'NONE', #260, #261, #232 ) ;
#14 = ADVANCED_BREP_SHAPE_REPRESENTATION ( '145077', ( #53, #225, #15 ), #138 ) ;
#15 = AXIS2_PLACEMENT_3D ( 'NONE', #197, #39, #224 ) ;
#16 = AXIS2_PLACEMENT_3D ( 'NONE', #26, #30, #5 ) ;
#17 = VECTOR ( 'NONE', #24, 1000.000000000000000 ) ;
#18 = ORIENTED_EDGE ( 'NONE', *, *, #92, .F. ) ;
#19 = ADVANCED_FACE ( 'NONE', ( #200 ), #96, .T. ) ;
#20 = AXIS2_PLACEMENT_3D ( 'NONE', #103, #214, #158 ) ;
#21 = SURFACE_SIDE_STYLE ('',( #133 ) ) ;
#22 = CARTESIAN_POINT ( 'NONE',  ( -0.5519199926577972300, 0.0000000000000000000, 19.99999999999991800 ) ) ;
#23 = AXIS2_PLACEMENT_3D ( 'NONE', #317, #155, #347 ) ;
#24 = DIRECTION ( 'NONE',  ( -1.000000000000000000, -0.0000000000000000000, -0.0000000000000000000 ) ) ;
#25 = SPHERICAL_SURFACE ( 'NONE', #20, 224.0800000000000100 ) ;
#26 = CARTESIAN_POINT ( 'NONE',  ( 151.2190846041469300, 0.0000000000000000000, -1.344597157034381000E-013 ) ) ;
#27 = ORIENTED_EDGE ( 'NONE', *, *, #272, .F. ) ;
#28 = ORIENTED_EDGE ( 'NONE', *, *, #38, .F. ) ;
#29 = EDGE_CURVE ( 'NONE', #52, #208, #207, .T. ) ;
#30 = DIRECTION ( 'NONE',  ( -0.0000000000000000000, 1.000000000000000000, 1.224646799147353200E-016 ) ) ;
#31 = DIRECTION ( 'NONE',  ( 0.0000000000000000000, 0.0000000000000000000, -1.000000000000000000 ) ) ;
#32 = PRODUCT_DEFINITION ( 'Î´Öª', '', #51, #221 ) ;
#33 = SURFACE_STYLE_USAGE ( .BOTH. , #162 ) ;
#34 = EDGE_LOOP ( 'NONE', ( #27, #345, #215 ) ) ;
#35 = ORIENTED_EDGE ( 'NONE', *, *, #86, .T. ) ;
#36 = AXIS2_PLACEMENT_3D ( 'NONE', #264, #107, #239 ) ;
#37 = APPLICATION_CONTEXT ( 'automotive_design' ) ;
#38 = EDGE_CURVE ( 'NONE', #208, #7, #127, .T. ) ;
#39 = DIRECTION ( 'NONE',  ( 0.0000000000000000000, 0.0000000000000000000, 1.000000000000000000 ) ) ;
#40 = COLOUR_RGB ( '',1.000000000000000000, 1.000000000000000000, 1.000000000000000000 ) ;
#41 =( GEOMETRIC_REPRESENTATION_CONTEXT ( 3 ) GLOBAL_UNCERTAINTY_ASSIGNED_CONTEXT ( ( #333 ) ) GLOBAL_UNIT_ASSIGNED_CONTEXT ( ( #194, #266, #216 ) ) REPRESENTATION_CONTEXT ( 'NONE', 'WORKASPACE' ) );
#42 = CIRCLE ( 'NONE', #73, 667.6799999999999500 ) ;
#43 = EDGE_LOOP ( 'NONE', ( #339, #139, #201, #319 ) ) ;
#44 = ADVANCED_FACE ( 'NONE', ( #50 ), #286, .T. ) ;
#45 = UNCERTAINTY_MEASURE_WITH_UNIT (LENGTH_MEASURE( 1.000000000000000100E-005 ), #340, 'distance_accuracy_value', 'NONE');
#46 = ORIENTED_EDGE ( 'NONE', *, *, #212, .F. ) ;
#47 = FILL_AREA_STYLE_COLOUR ( '', #299 ) ;
#48 = AXIS2_PLACEMENT_3D ( 'NONE', #209, #74, #93 ) ;
#49 = CARTESIAN_POINT ( 'NONE',  ( 369.9548607699778100, 0.0000000000000000000, 0.0000000000000000000 ) ) ;
#50 = FACE_OUTER_BOUND ( 'NONE', #117, .T. ) ;
#51 = PRODUCT_DEFINITION_FORMATION_WITH_SPECIFIED_SOURCE ( 'ÈÎºÎ', '', #289, .NOT_KNOWN. ) ;
#52 = VERTEX_POINT ( 'NONE', #231 ) ;
#53 = MANIFOLD_SOLID_BREP ( 'Ðý×ª1', #1 ) ;
#54 = ORIENTED_EDGE ( 'NONE', *, *, #272, .T. ) ;
#55 = DIRECTION ( 'NONE',  ( 0.0000000000000000000, -1.000000000000000000, 0.0000000000000000000 ) ) ;
#56 = AXIS2_PLACEMENT_3D ( 'NONE', #300, #113, #274 ) ;
#57 = EDGE_CURVE ( 'NONE', #271, #275, #253, .T. ) ;
#58 = DIRECTION ( 'NONE',  ( 0.0000000000000000000, 0.0000000000000000000, 1.000000000000000000 ) ) ;
#59 = ORIENTED_EDGE ( 'NONE', *, *, #212, .T. ) ;
#60 = DIRECTION ( 'NONE',  ( 0.0000000000000000000, 0.0000000000000000000, 1.000000000000000000 ) ) ;
#61 = EDGE_LOOP ( 'NONE', ( #246, #181, #46 ) ) ;
#62 = EDGE_LOOP ( 'NONE', ( #76, #314, #122 ) ) ;
#63 = DIRECTION ( 'NONE',  ( 0.0000000000000000000, 1.000000000000000000, 0.0000000000000000000 ) ) ;
#64 = CARTESIAN_POINT ( 'NONE',  ( 374.4047615639375400, 2.449293598294689600E-015, -19.99999999999999600 ) ) ;
#65 = DIRECTION ( 'NONE',  ( -1.000000000000000000, -0.0000000000000000000, -0.0000000000000000000 ) ) ;
#66 = PRODUCT_CONTEXT ( 'NONE', #37, 'mechanical' ) ;
#67 = EDGE_CURVE ( 'NONE', #170, #97, #323, .T. ) ;
#68 = PRESENTATION_STYLE_ASSIGNMENT (( #175 ) ) ;
#69 = ORIENTED_EDGE ( 'NONE', *, *, #320, .F. ) ;
#70 = AXIS2_PLACEMENT_3D ( 'NONE', #223, #8, #12 ) ;
#71 = PRESENTATION_STYLE_ASSIGNMENT (( #302 ) ) ;
#72 = ORIENTED_EDGE ( 'NONE', *, *, #343, .T. ) ;
#73 = AXIS2_PLACEMENT_3D ( 'NONE', #125, #206, #177 ) ;
#74 = DIRECTION ( 'NONE',  ( 0.0000000000000000000, 1.000000000000000000, 0.0000000000000000000 ) ) ;
#75 = ADVANCED_FACE ( 'NONE', ( #85 ), #344, .T. ) ;
#76 = ORIENTED_EDGE ( 'NONE', *, *, #2, .F. ) ;
#77 = STYLED_ITEM ( 'NONE', ( #71 ), #14 ) ;
#78 = CIRCLE ( 'NONE', #346, 19.99999999999991500 ) ;
#79 = DIRECTION ( 'NONE',  ( 0.0000000000000000000, 0.0000000000000000000, 1.000000000000000000 ) ) ;
#80 = EDGE_CURVE ( 'NONE', #52, #288, #109, .T. ) ;
#81 = DIRECTION ( 'NONE',  ( -1.000000000000000000, -0.0000000000000000000, -0.0000000000000000000 ) ) ;
#82 = DIRECTION ( 'NONE',  ( 0.0000000000000000000, 0.0000000000000000000, -1.000000000000000000 ) ) ;
#83 = DIRECTION ( 'NONE',  ( 0.0000000000000000000, 0.0000000000000000000, 1.000000000000000000 ) ) ;
#84 = AXIS2_PLACEMENT_3D ( 'NONE', #10, #163, #328 ) ;
#85 = FACE_OUTER_BOUND ( 'NONE', #211, .T. ) ;
#86 = EDGE_CURVE ( 'NONE', #168, #275, #220, .T. ) ;
#87 = APPLICATION_PROTOCOL_DEFINITION ( 'draft international standard', 'automotive_design', 1998, #249 ) ;
#88 = EDGE_CURVE ( 'NONE', #7, #288, #324, .T. ) ;
#89 = AXIS2_PLACEMENT_3D ( 'NONE', #219, #322, #151 ) ;
#90 = FACE_OUTER_BOUND ( 'NONE', #165, .T. ) ;
#91 = ADVANCED_FACE ( 'NONE', ( #152 ), #25, .F. ) ;
#92 = EDGE_CURVE ( 'NONE', #168, #97, #164, .T. ) ;
#93 = DIRECTION ( 'NONE',  ( 0.0000000000000000000, 0.0000000000000000000, 1.000000000000000000 ) ) ;
#94 = FACE_OUTER_BOUND ( 'NONE', #334, .T. ) ;
#95 = CARTESIAN_POINT ( 'NONE',  ( 375.2990846041469700, 0.0000000000000000000, -1.207387729657911400E-013 ) ) ;
#96 = CYLINDRICAL_SURFACE ( 'NONE', #13, 19.99999999999991800 ) ;
#97 = VERTEX_POINT ( 'NONE', #292 ) ;
#98 = AXIS2_PLACEMENT_3D ( 'NONE', #157, #290, #184 ) ;
#99 = CARTESIAN_POINT ( 'NONE',  ( -288.3809153958529800, 0.0000000000000000000, 0.0000000000000000000 ) ) ;
#100 = CARTESIAN_POINT ( 'NONE',  ( 378.9994726887834400, 0.0000000000000000000, 19.99999999999991500 ) ) ;
#101 = EDGE_CURVE ( 'NONE', #275, #309, #298, .T. ) ;
#102 = DIRECTION ( 'NONE',  ( -1.000000000000000000, -0.0000000000000000000, -0.0000000000000000000 ) ) ;
#103 = CARTESIAN_POINT ( 'NONE',  ( 151.2190846041469300, 0.0000000000000000000, -1.344597157034381000E-013 ) ) ;
#104 = DIRECTION ( 'NONE',  ( 0.0000000000000000000, -1.000000000000000000, 0.0000000000000000000 ) ) ;
#105 = CARTESIAN_POINT ( 'NONE',  ( 369.2990846041469100, 0.0000000000000000000, -1.189200028832707900E-013 ) ) ;
#106 = AXIS2_PLACEMENT_3D ( 'NONE', #273, #244, #82 ) ;
#107 = DIRECTION ( 'NONE',  ( -1.000000000000000000, -0.0000000000000000000, -0.0000000000000000000 ) ) ;
#108 = CYLINDRICAL_SURFACE ( 'NONE', #173, 19.99999999999986500 ) ;
#109 = LINE ( 'NONE', #247, #17 ) ;
#110 = DIRECTION ( 'NONE',  ( -1.000000000000000000, -0.0000000000000000000, -0.0000000000000000000 ) ) ;
#111 = ORIENTED_EDGE ( 'NONE', *, *, #281, .F. ) ;
#112 = VECTOR ( 'NONE', #110, 1000.000000000000000 ) ;
#113 = DIRECTION ( 'NONE',  ( -1.000000000000000000, -0.0000000000000000000, -0.0000000000000000000 ) ) ;
#114 = PRODUCT_DEFINITION_SHAPE ( 'NONE', 'NONE',  #32 ) ;
#115 = SURFACE_SIDE_STYLE ('',( #337 ) ) ;
#116 = ORIENTED_EDGE ( 'NONE', *, *, #308, .T. ) ;
#117 = EDGE_LOOP ( 'NONE', ( #325, #116, #59 ) ) ;
#118 = PRODUCT_RELATED_PRODUCT_CATEGORY ( 'part', '', ( #289 ) ) ;
#119 = CYLINDRICAL_SURFACE ( 'NONE', #36, 19.99999999999991800 ) ;
#120 = AXIS2_PLACEMENT_3D ( 'NONE', #242, #104, #31 ) ;
#121 = ADVANCED_FACE ( 'NONE', ( #90 ), #245, .T. ) ;
#122 = ORIENTED_EDGE ( 'NONE', *, *, #29, .F. ) ;
#123 = AXIS2_PLACEMENT_3D ( 'NONE', #49, #265, #178 ) ;
#124 = CARTESIAN_POINT ( 'NONE',  ( 674.6090846041470300, 0.0000000000000000000, -1.376148485956547200E-013 ) ) ;
#125 = CARTESIAN_POINT ( 'NONE',  ( -288.3809153958529800, 0.0000000000000000000, 0.0000000000000000000 ) ) ;
#126 = SURFACE_STYLE_FILL_AREA ( #9 ) ;
#127 = LINE ( 'NONE', #22, #145 ) ;
#128 = ORIENTED_EDGE ( 'NONE', *, *, #86, .F. ) ;
#129 =( GEOMETRIC_REPRESENTATION_CONTEXT ( 3 ) GLOBAL_UNCERTAINTY_ASSIGNED_CONTEXT ( ( #234 ) ) GLOBAL_UNIT_ASSIGNED_CONTEXT ( ( #141, #331, #167 ) ) REPRESENTATION_CONTEXT ( 'NONE', 'WORKASPACE' ) );
#130 = CLOSED_SHELL ( 'NONE', ( #121, #257, #91, #229, #19, #306 ) ) ;
#131 = DIRECTION ( 'NONE',  ( -0.0000000000000000000, 1.000000000000000000, 1.224646799147353200E-016 ) ) ;
#132 =( GEOMETRIC_REPRESENTATION_CONTEXT ( 3 ) GLOBAL_UNCERTAINTY_ASSIGNED_CONTEXT ( ( #45 ) ) GLOBAL_UNIT_ASSIGNED_CONTEXT ( ( #340, #147, #307 ) ) REPRESENTATION_CONTEXT ( 'NONE', 'WORKASPACE' ) );
#133 = SURFACE_STYLE_FILL_AREA ( #205 ) ;
#134 = ORIENTED_EDGE ( 'NONE', *, *, #303, .F. ) ;
#135 = CARTESIAN_POINT ( 'NONE',  ( 151.2190846041469300, 0.0000000000000000000, -1.344597157034381000E-013 ) ) ;
#136 = CYLINDRICAL_SURFACE ( 'NONE', #179, 19.99999999999986500 ) ;
#137 = DIRECTION ( 'NONE',  ( 0.0000000000000000000, 0.0000000000000000000, -1.000000000000000000 ) ) ;
#138 =( GEOMETRIC_REPRESENTATION_CONTEXT ( 3 ) GLOBAL_UNCERTAINTY_ASSIGNED_CONTEXT ( ( #295 ) ) GLOBAL_UNIT_ASSIGNED_CONTEXT ( ( #6, #217, #166 ) ) REPRESENTATION_CONTEXT ( 'NONE', 'WORKASPACE' ) );
#139 = ORIENTED_EDGE ( 'NONE', *, *, #29, .T. ) ;
#140 = SHAPE_DEFINITION_REPRESENTATION ( #114, #14 ) ;
#141 =( LENGTH_UNIT ( ) NAMED_UNIT ( * ) SI_UNIT ( .MILLI., .METRE. ) );
#142 = AXIS2_PLACEMENT_3D ( 'NONE', #4, #187, #321 ) ;
#143 = ORIENTED_EDGE ( 'NONE', *, *, #268, .F. ) ;
#144 = MECHANICAL_DESIGN_GEOMETRIC_PRESENTATION_REPRESENTATION (  '', ( #195 ), #41 ) ;
#145 = VECTOR ( 'NONE', #176, 1000.000000000000000 ) ;
#146 = ADVANCED_FACE ( 'NONE', ( #94 ), #108, .T. ) ;
#147 =( NAMED_UNIT ( * ) PLANE_ANGLE_UNIT ( ) SI_UNIT ( $, .RADIAN. ) );
#148 = DIRECTION ( 'NONE',  ( -1.000000000000000000, -0.0000000000000000000, -0.0000000000000000000 ) ) ;
#149 = STYLED_ITEM ( 'NONE', ( #68 ), #53 ) ;
#150 = CARTESIAN_POINT ( 'NONE',  ( 374.4047615639375400, 0.0000000000000000000, 19.99999999999985800 ) ) ;
#151 = DIRECTION ( 'NONE',  ( 0.0000000000000000000, -1.224646799147353200E-016, 1.000000000000000000 ) ) ;
#152 = FACE_OUTER_BOUND ( 'NONE', #34, .T. ) ;
#153 = AXIS2_PLACEMENT_3D ( 'NONE', #296, #326, #137 ) ;
#154 = CARTESIAN_POINT ( 'NONE',  ( 151.2190846041469300, 0.0000000000000000000, -1.344597157034381000E-013 ) ) ;
#155 = DIRECTION ( 'NONE',  ( -1.000000000000000000, -0.0000000000000000000, -0.0000000000000000000 ) ) ;
#156 = PRESENTATION_LAYER_ASSIGNMENT (  '', '', ( #149 ) ) ;
#157 = CARTESIAN_POINT ( 'NONE',  ( 151.2190846041469300, 0.0000000000000000000, -1.344597157034381000E-013 ) ) ;
#158 = DIRECTION ( 'NONE',  ( 0.0000000000000000000, 0.0000000000000000000, 1.000000000000000000 ) ) ;
#159 = CARTESIAN_POINT ( 'NONE',  ( 124.5233095260452400, 0.0000000000000000000, 0.0000000000000000000 ) ) ;
#160 = FILL_AREA_STYLE_COLOUR ( '', #40 ) ;
#161 = AXIS2_PLACEMENT_3D ( 'NONE', #135, #63, #243 ) ;
#162 = SURFACE_SIDE_STYLE ('',( #126 ) ) ;
#163 = DIRECTION ( 'NONE',  ( -1.000000000000000000, -0.0000000000000000000, -0.0000000000000000000 ) ) ;
#164 = CIRCLE ( 'NONE', #341, 19.99999999999986500 ) ;
#165 = EDGE_LOOP ( 'NONE', ( #69, #222, #185 ) ) ;
#166 =( NAMED_UNIT ( * ) SI_UNIT ( $, .STERADIAN. ) SOLID_ANGLE_UNIT ( ) );
#167 =( NAMED_UNIT ( * ) SI_UNIT ( $, .STERADIAN. ) SOLID_ANGLE_UNIT ( ) );
#168 = VERTEX_POINT ( 'NONE', #315 ) ;
#169 = MECHANICAL_DESIGN_GEOMETRIC_PRESENTATION_REPRESENTATION (  '', ( #149 ), #132 ) ;
#170 = VERTEX_POINT ( 'NONE', #95 ) ;
#171 = EDGE_LOOP ( 'NONE', ( #72, #270, #262, #28 ) ) ;
#172 = CIRCLE ( 'NONE', #120, 224.0800000000000100 ) ;
#173 = AXIS2_PLACEMENT_3D ( 'NONE', #267, #102, #79 ) ;
#174 = EDGE_CURVE ( 'NONE', #288, #7, #180, .T. ) ;
#175 = SURFACE_STYLE_USAGE ( .BOTH. , #21 ) ;
#176 = DIRECTION ( 'NONE',  ( -1.000000000000000000, -0.0000000000000000000, -0.0000000000000000000 ) ) ;
#177 = DIRECTION ( 'NONE',  ( 0.0000000000000000000, -1.224646799147353200E-016, 1.000000000000000000 ) ) ;
#178 = DIRECTION ( 'NONE',  ( 0.0000000000000000000, 0.0000000000000000000, 1.000000000000000000 ) ) ;
#179 = AXIS2_PLACEMENT_3D ( 'NONE', #159, #81, #311 ) ;
#180 = CIRCLE ( 'NONE', #23, 19.99999999999992200 ) ;
#181 = ORIENTED_EDGE ( 'NONE', *, *, #101, .T. ) ;
#182 = ORIENTED_EDGE ( 'NONE', *, *, #92, .T. ) ;
#183 = SPHERICAL_SURFACE ( 'NONE', #70, 305.3100000000001200 ) ;
#184 = DIRECTION ( 'NONE',  ( 0.0000000000000000000, 0.0000000000000000000, 1.000000000000000000 ) ) ;
#185 = ORIENTED_EDGE ( 'NONE', *, *, #343, .F. ) ;
#186 = CARTESIAN_POINT ( 'NONE',  ( -288.3809153958529800, 0.0000000000000000000, 0.0000000000000000000 ) ) ;
#187 = DIRECTION ( 'NONE',  ( -1.000000000000000000, -0.0000000000000000000, -0.0000000000000000000 ) ) ;
#188 = CARTESIAN_POINT ( 'NONE',  ( 369.9548607699778100, 2.449293598294664700E-015, -19.99999999999979400 ) ) ;
#189 = FILL_AREA_STYLE_COLOUR ( '', #305 ) ;
#190 = FACE_OUTER_BOUND ( 'NONE', #335, .T. ) ;
#191 = ORIENTED_EDGE ( 'NONE', *, *, #88, .T. ) ;
#192 = DIRECTION ( 'NONE',  ( 0.0000000000000000000, 1.000000000000000000, 0.0000000000000000000 ) ) ;
#193 = EDGE_LOOP ( 'NONE', ( #143, #228, #18 ) ) ;
#194 =( LENGTH_UNIT ( ) NAMED_UNIT ( * ) SI_UNIT ( .MILLI., .METRE. ) );
#195 = STYLED_ITEM ( 'NONE', ( #237 ), #225 ) ;
#196 = CARTESIAN_POINT ( 'NONE',  ( 378.9994726887834400, 0.0000000000000000000, 0.0000000000000000000 ) ) ;
#197 = CARTESIAN_POINT ( 'NONE',  ( 0.0000000000000000000, 0.0000000000000000000, 0.0000000000000000000 ) ) ;
#198 = AXIS2_PLACEMENT_3D ( 'NONE', #154, #55, #284 ) ;
#199 = CIRCLE ( 'NONE', #153, 305.3100000000001200 ) ;
#200 = FACE_OUTER_BOUND ( 'NONE', #43, .T. ) ;
#201 = ORIENTED_EDGE ( 'NONE', *, *, #38, .T. ) ;
#202 = LINE ( 'NONE', #297, #112 ) ;
#203 = AXIS2_PLACEMENT_3D ( 'NONE', #3, #131, #318 ) ;
#204 = ADVANCED_FACE ( 'NONE', ( #252 ), #313, .T. ) ;
#205 = FILL_AREA_STYLE ('',( #47 ) ) ;
#206 = DIRECTION ( 'NONE',  ( -0.0000000000000000000, 1.000000000000000000, 1.224646799147353200E-016 ) ) ;
#207 = CIRCLE ( 'NONE', #230, 19.99999999999991500 ) ;
#208 = VERTEX_POINT ( 'NONE', #100 ) ;
#209 = CARTESIAN_POINT ( 'NONE',  ( 151.2190846041469300, 0.0000000000000000000, -1.344597157034381000E-013 ) ) ;
#210 = SPHERICAL_SURFACE ( 'NONE', #218, 667.6799999999999500 ) ;
#211 = EDGE_LOOP ( 'NONE', ( #238, #254, #134 ) ) ;
#212 = EDGE_CURVE ( 'NONE', #271, #309, #199, .T. ) ;
#213 = DIRECTION ( 'NONE',  ( -1.000000000000000000, -0.0000000000000000000, -0.0000000000000000000 ) ) ;
#214 = DIRECTION ( 'NONE',  ( 0.0000000000000000000, 1.000000000000000000, 0.0000000000000000000 ) ) ;
#215 = ORIENTED_EDGE ( 'NONE', *, *, #174, .T. ) ;
#216 =( NAMED_UNIT ( * ) SI_UNIT ( $, .STERADIAN. ) SOLID_ANGLE_UNIT ( ) );
#217 =( NAMED_UNIT ( * ) PLANE_ANGLE_UNIT ( ) SI_UNIT ( $, .RADIAN. ) );
#218 = AXIS2_PLACEMENT_3D ( 'NONE', #99, #192, #83 ) ;
#219 = CARTESIAN_POINT ( 'NONE',  ( 151.2190846041469300, 0.0000000000000000000, -1.344597157034381000E-013 ) ) ;
#220 = LINE ( 'NONE', #258, #227 ) ;
#221 = PRODUCT_DEFINITION_CONTEXT ( 'detailed design', #249, 'design' ) ;
#222 = ORIENTED_EDGE ( 'NONE', *, *, #2, .T. ) ;
#223 = CARTESIAN_POINT ( 'NONE',  ( 674.6090846041470300, 0.0000000000000000000, -1.376148485956547200E-013 ) ) ;
#224 = DIRECTION ( 'NONE',  ( 1.000000000000000000, 0.0000000000000000000, 0.0000000000000000000 ) ) ;
#225 = MANIFOLD_SOLID_BREP ( 'Ðý×ª3', #130 ) ;
#226 = FACE_OUTER_BOUND ( 'NONE', #171, .T. ) ;
#227 = VECTOR ( 'NONE', #293, 1000.000000000000000 ) ;
#228 = ORIENTED_EDGE ( 'NONE', *, *, #67, .T. ) ;
#229 = ADVANCED_FACE ( 'NONE', ( #190 ), #236, .F. ) ;
#230 = AXIS2_PLACEMENT_3D ( 'NONE', #342, #148, #310 ) ;
#231 = CARTESIAN_POINT ( 'NONE',  ( 378.9994726887834400, 2.449293598294696300E-015, -19.99999999999991500 ) ) ;
#232 = DIRECTION ( 'NONE',  ( 0.0000000000000000000, 0.0000000000000000000, 1.000000000000000000 ) ) ;
#233 = CARTESIAN_POINT ( 'NONE',  ( 375.2990846041469700, 0.0000000000000000000, -1.207387729657911400E-013 ) ) ;
#234 = UNCERTAINTY_MEASURE_WITH_UNIT (LENGTH_MEASURE( 1.000000000000000100E-005 ), #141, 'distance_accuracy_value', 'NONE');
#235 = PRESENTATION_LAYER_ASSIGNMENT (  '', '', ( #195 ) ) ;
#236 = SPHERICAL_SURFACE ( 'NONE', #161, 224.0800000000000100 ) ;
#237 = PRESENTATION_STYLE_ASSIGNMENT (( #33 ) ) ;
#238 = ORIENTED_EDGE ( 'NONE', *, *, #67, .F. ) ;
#239 = DIRECTION ( 'NONE',  ( 0.0000000000000000000, 0.0000000000000000000, 1.000000000000000000 ) ) ;
#240 = DIRECTION ( 'NONE',  ( 0.0000000000000000000, 1.000000000000000000, 0.0000000000000000000 ) ) ;
#241 = ORIENTED_EDGE ( 'NONE', *, *, #57, .F. ) ;
#242 = CARTESIAN_POINT ( 'NONE',  ( 151.2190846041469300, 0.0000000000000000000, -1.344597157034381000E-013 ) ) ;
#243 = DIRECTION ( 'NONE',  ( 0.0000000000000000000, 0.0000000000000000000, 1.000000000000000000 ) ) ;
#244 = DIRECTION ( 'NONE',  ( 0.0000000000000000000, -1.000000000000000000, 0.0000000000000000000 ) ) ;
#245 = SPHERICAL_SURFACE ( 'NONE', #329, 667.6799999999999500 ) ;
#246 = ORIENTED_EDGE ( 'NONE', *, *, #57, .T. ) ;
#247 = CARTESIAN_POINT ( 'NONE',  ( -0.5519199926577972300, 2.449293598294696300E-015, -19.99999999999991800 ) ) ;
#248 = DIRECTION ( 'NONE',  ( 0.0000000000000000000, 0.0000000000000000000, 1.000000000000000000 ) ) ;
#249 = APPLICATION_CONTEXT ( 'automotive_design' ) ;
#250 = AXIS2_PLACEMENT_3D ( 'NONE', #124, #282, #259 ) ;
#251 = CIRCLE ( 'NONE', #106, 667.6799999999999500 ) ;
#252 = FACE_OUTER_BOUND ( 'NONE', #193, .T. ) ;
#253 = CIRCLE ( 'NONE', #123, 19.99999999999986100 ) ;
#254 = ORIENTED_EDGE ( 'NONE', *, *, #268, .T. ) ;
#255 = MECHANICAL_DESIGN_GEOMETRIC_PRESENTATION_REPRESENTATION (  '', ( #77 ), #129 ) ;
#256 = CIRCLE ( 'NONE', #84, 19.99999999999986100 ) ;
#257 = ADVANCED_FACE ( 'NONE', ( #226 ), #119, .T. ) ;
#258 = CARTESIAN_POINT ( 'NONE',  ( 124.5233095260452400, 2.449293598294689900E-015, -19.99999999999986500 ) ) ;
#259 = DIRECTION ( 'NONE',  ( 0.0000000000000000000, 0.0000000000000000000, 1.000000000000000000 ) ) ;
#260 = CARTESIAN_POINT ( 'NONE',  ( -0.5519199926577972300, 0.0000000000000000000, 0.0000000000000000000 ) ) ;
#261 = DIRECTION ( 'NONE',  ( -1.000000000000000000, -0.0000000000000000000, -0.0000000000000000000 ) ) ;
#262 = ORIENTED_EDGE ( 'NONE', *, *, #88, .F. ) ;
#263 = ORIENTED_EDGE ( 'NONE', *, *, #330, .T. ) ;
#264 = CARTESIAN_POINT ( 'NONE',  ( -0.5519199926577972300, 0.0000000000000000000, 0.0000000000000000000 ) ) ;
#265 = DIRECTION ( 'NONE',  ( -1.000000000000000000, -0.0000000000000000000, -0.0000000000000000000 ) ) ;
#266 =( NAMED_UNIT ( * ) PLANE_ANGLE_UNIT ( ) SI_UNIT ( $, .RADIAN. ) );
#267 = CARTESIAN_POINT ( 'NONE',  ( 124.5233095260452400, 0.0000000000000000000, 0.0000000000000000000 ) ) ;
#268 = EDGE_CURVE ( 'NONE', #170, #168, #304, .T. ) ;
#269 = CARTESIAN_POINT ( 'NONE',  ( 374.4047615639375400, 0.0000000000000000000, 0.0000000000000000000 ) ) ;
#270 = ORIENTED_EDGE ( 'NONE', *, *, #80, .T. ) ;
#271 = VERTEX_POINT ( 'NONE', #291 ) ;
#272 = EDGE_CURVE ( 'NONE', #301, #7, #172, .T. ) ;
#273 = CARTESIAN_POINT ( 'NONE',  ( -288.3809153958529800, 0.0000000000000000000, 0.0000000000000000000 ) ) ;
#274 = DIRECTION ( 'NONE',  ( 0.0000000000000000000, 0.0000000000000000000, 1.000000000000000000 ) ) ;
#275 = VERTEX_POINT ( 'NONE', #188 ) ;
#276 = FILL_AREA_STYLE ('',( #160 ) ) ;
#277 = ORIENTED_EDGE ( 'NONE', *, *, #330, .F. ) ;
#278 = ADVANCED_FACE ( 'NONE', ( #280 ), #136, .T. ) ;
#279 = VERTEX_POINT ( 'NONE', #287 ) ;
#280 = FACE_OUTER_BOUND ( 'NONE', #332, .T. ) ;
#281 = EDGE_CURVE ( 'NONE', #301, #288, #283, .T. ) ;
#282 = DIRECTION ( 'NONE',  ( 0.0000000000000000000, 1.000000000000000000, 0.0000000000000000000 ) ) ;
#283 = CIRCLE ( 'NONE', #89, 224.0800000000000100 ) ;
#284 = DIRECTION ( 'NONE',  ( 0.0000000000000000000, 0.0000000000000000000, -1.000000000000000000 ) ) ;
#285 = PRESENTATION_LAYER_ASSIGNMENT (  '', '', ( #77 ) ) ;
#286 = SPHERICAL_SURFACE ( 'NONE', #250, 305.3100000000001200 ) ;
#287 = CARTESIAN_POINT ( 'NONE',  ( 379.2990846041469700, 0.0000000000000000000, 4.088360874273523500E-014 ) ) ;
#288 = VERTEX_POINT ( 'NONE', #64 ) ;
#289 = PRODUCT ( '145077', '145077', '', ( #66 ) ) ;
#290 = DIRECTION ( 'NONE',  ( 0.0000000000000000000, 1.000000000000000000, 0.0000000000000000000 ) ) ;
#291 = CARTESIAN_POINT ( 'NONE',  ( 369.9548607699778100, 0.0000000000000000000, 19.99999999999965500 ) ) ;
#292 = CARTESIAN_POINT ( 'NONE',  ( 374.4047615639375400, 0.0000000000000000000, 19.99999999999986500 ) ) ;
#293 = DIRECTION ( 'NONE',  ( -1.000000000000000000, -0.0000000000000000000, -0.0000000000000000000 ) ) ;
#294 = FACE_OUTER_BOUND ( 'NONE', #61, .T. ) ;
#295 = UNCERTAINTY_MEASURE_WITH_UNIT (LENGTH_MEASURE( 1.000000000000000100E-005 ), #6, 'distance_accuracy_value', 'NONE');
#296 = CARTESIAN_POINT ( 'NONE',  ( 674.6090846041470300, 0.0000000000000000000, -1.376148485956547200E-013 ) ) ;
#297 = CARTESIAN_POINT ( 'NONE',  ( 124.5233095260452400, 0.0000000000000000000, 19.99999999999986500 ) ) ;
#298 = CIRCLE ( 'NONE', #203, 305.3100000000001200 ) ;
#299 = COLOUR_RGB ( '',1.000000000000000000, 1.000000000000000000, 1.000000000000000000 ) ;
#300 = CARTESIAN_POINT ( 'NONE',  ( 374.4047615639375400, 0.0000000000000000000, 0.0000000000000000000 ) ) ;
#301 = VERTEX_POINT ( 'NONE', #233 ) ;
#302 = SURFACE_STYLE_USAGE ( .BOTH. , #115 ) ;
#303 = EDGE_CURVE ( 'NONE', #97, #168, #316, .T. ) ;
#304 = CIRCLE ( 'NONE', #16, 224.0800000000000100 ) ;
#305 = COLOUR_RGB ( '',1.000000000000000000, 1.000000000000000000, 1.000000000000000000 ) ;
#306 = ADVANCED_FACE ( 'NONE', ( #327 ), #210, .T. ) ;
#307 =( NAMED_UNIT ( * ) SI_UNIT ( $, .STERADIAN. ) SOLID_ANGLE_UNIT ( ) );
#308 = EDGE_CURVE ( 'NONE', #275, #271, #256, .T. ) ;
#309 = VERTEX_POINT ( 'NONE', #105 ) ;
#310 = DIRECTION ( 'NONE',  ( 0.0000000000000000000, 0.0000000000000000000, 1.000000000000000000 ) ) ;
#311 = DIRECTION ( 'NONE',  ( 0.0000000000000000000, 0.0000000000000000000, 1.000000000000000000 ) ) ;
#312 = ORIENTED_EDGE ( 'NONE', *, *, #308, .F. ) ;
#313 = SPHERICAL_SURFACE ( 'NONE', #98, 224.0800000000000100 ) ;
#314 = ORIENTED_EDGE ( 'NONE', *, *, #320, .T. ) ;
#315 = CARTESIAN_POINT ( 'NONE',  ( 374.4047615639375400, 2.449293598294689900E-015, -19.99999999999986500 ) ) ;
#316 = CIRCLE ( 'NONE', #56, 19.99999999999986500 ) ;
#317 = CARTESIAN_POINT ( 'NONE',  ( 374.4047615639375400, 0.0000000000000000000, 0.0000000000000000000 ) ) ;
#318 = DIRECTION ( 'NONE',  ( 0.0000000000000000000, -1.224646799147353200E-016, 1.000000000000000000 ) ) ;
#319 = ORIENTED_EDGE ( 'NONE', *, *, #174, .F. ) ;
#320 = EDGE_CURVE ( 'NONE', #279, #208, #251, .T. ) ;
#321 = DIRECTION ( 'NONE',  ( 0.0000000000000000000, 0.0000000000000000000, 1.000000000000000000 ) ) ;
#322 = DIRECTION ( 'NONE',  ( -0.0000000000000000000, 1.000000000000000000, 1.224646799147353200E-016 ) ) ;
#323 = CIRCLE ( 'NONE', #198, 224.0800000000000100 ) ;
#324 = CIRCLE ( 'NONE', #142, 19.99999999999992200 ) ;
#325 = ORIENTED_EDGE ( 'NONE', *, *, #101, .F. ) ;
#326 = DIRECTION ( 'NONE',  ( 0.0000000000000000000, -1.000000000000000000, 0.0000000000000000000 ) ) ;
#327 = FACE_OUTER_BOUND ( 'NONE', #62, .T. ) ;
#328 = DIRECTION ( 'NONE',  ( 0.0000000000000000000, 0.0000000000000000000, 1.000000000000000000 ) ) ;
#329 = AXIS2_PLACEMENT_3D ( 'NONE', #186, #240, #58 ) ;
#330 = EDGE_CURVE ( 'NONE', #97, #271, #202, .T. ) ;
#331 =( NAMED_UNIT ( * ) PLANE_ANGLE_UNIT ( ) SI_UNIT ( $, .RADIAN. ) );
#332 = EDGE_LOOP ( 'NONE', ( #336, #35, #241, #277 ) ) ;
#333 = UNCERTAINTY_MEASURE_WITH_UNIT (LENGTH_MEASURE( 1.000000000000000100E-005 ), #194, 'distance_accuracy_value', 'NONE');
#334 = EDGE_LOOP ( 'NONE', ( #128, #182, #263, #312 ) ) ;
#335 = EDGE_LOOP ( 'NONE', ( #111, #54, #191 ) ) ;
#336 = ORIENTED_EDGE ( 'NONE', *, *, #303, .T. ) ;
#337 = SURFACE_STYLE_FILL_AREA ( #276 ) ;
#338 = ADVANCED_FACE ( 'NONE', ( #294 ), #183, .T. ) ;
#339 = ORIENTED_EDGE ( 'NONE', *, *, #80, .F. ) ;
#340 =( LENGTH_UNIT ( ) NAMED_UNIT ( * ) SI_UNIT ( .MILLI., .METRE. ) );
#341 = AXIS2_PLACEMENT_3D ( 'NONE', #269, #213, #60 ) ;
#342 = CARTESIAN_POINT ( 'NONE',  ( 378.9994726887834400, 0.0000000000000000000, 0.0000000000000000000 ) ) ;
#343 = EDGE_CURVE ( 'NONE', #208, #52, #78, .T. ) ;
#344 = SPHERICAL_SURFACE ( 'NONE', #48, 224.0800000000000100 ) ;
#345 = ORIENTED_EDGE ( 'NONE', *, *, #281, .T. ) ;
#346 = AXIS2_PLACEMENT_3D ( 'NONE', #196, #65, #248 ) ;
#347 = DIRECTION ( 'NONE',  ( 0.0000000000000000000, 0.0000000000000000000, 1.000000000000000000 ) ) ;
ENDSEC;
END-ISO-10303-21;
