ISO-10303-21;
HEADER;
FILE_DESCRIPTION (( 'STEP AP214' ),
    '1' );
FILE_NAME ('145075.STEP',
    '2019-05-15T09:29:44',
    ( 'user' ),
    ( 'Î¢ÈíÖÐ¹ú' ),
    'SwSTEP 2.0',
    'SolidWorks 2016',
    '' );
FILE_SCHEMA (( 'AUTOMOTIVE_DESIGN' ));
ENDSEC;

DATA;
#1 = FACE_OUTER_BOUND ( 'NONE', #134, .T. ) ;
#2 = PRODUCT ( '145075', '145075', '', ( #203 ) ) ;
#3 = DIRECTION ( 'NONE',  ( -1.000000000000000000, -0.0000000000000000000, -0.0000000000000000000 ) ) ;
#4 = CARTESIAN_POINT ( 'NONE',  ( -33.61440685443206900, 0.0000000000000000000, 0.0000000000000000000 ) ) ;
#5 = DIRECTION ( 'NONE',  ( -1.000000000000000000, -0.0000000000000000000, -0.0000000000000000000 ) ) ;
#6 = SPHERICAL_SURFACE ( 'NONE', #253, 329.9850000000000100 ) ;
#7 = CARTESIAN_POINT ( 'NONE',  ( 192.2005931455679800, 0.0000000000000000000, 3.398765551226179000E-013 ) ) ;
#8 = FACE_OUTER_BOUND ( 'NONE', #290, .T. ) ;
#9 = FILL_AREA_STYLE ('',( #280 ) ) ;
#10 = AXIS2_PLACEMENT_3D ( 'NONE', #229, #300, #109 ) ;
#11 = DIRECTION ( 'NONE',  ( -1.000000000000000000, -0.0000000000000000000, -0.0000000000000000000 ) ) ;
#12 = CARTESIAN_POINT ( 'NONE',  ( 291.8840366053522100, 0.0000000000000000000, 20.00000000000018100 ) ) ;
#13 = ORIENTED_EDGE ( 'NONE', *, *, #95, .F. ) ;
#14 = ADVANCED_FACE ( 'NONE', ( #144 ), #252, .T. ) ;
#15 = EDGE_CURVE ( 'NONE', #346, #284, #75, .T. ) ;
#16 = CIRCLE ( 'NONE', #282, 20.00000000000021300 ) ;
#17 = ORIENTED_EDGE ( 'NONE', *, *, #116, .T. ) ;
#18 = CARTESIAN_POINT ( 'NONE',  ( 192.2005931455679800, 0.0000000000000000000, 3.398765551226179000E-013 ) ) ;
#19 = ORIENTED_EDGE ( 'NONE', *, *, #45, .T. ) ;
#20 = UNCERTAINTY_MEASURE_WITH_UNIT (LENGTH_MEASURE( 1.000000000000000100E-005 ), #191, 'distance_accuracy_value', 'NONE');
#21 = CARTESIAN_POINT ( 'NONE',  ( 291.8840366053522100, 0.0000000000000000000, 0.0000000000000000000 ) ) ;
#22 = DIRECTION ( 'NONE',  ( 0.0000000000000000000, 0.0000000000000000000, 1.000000000000000000 ) ) ;
#23 = SPHERICAL_SURFACE ( 'NONE', #72, 101.6699999999999900 ) ;
#24 = CARTESIAN_POINT ( 'NONE',  ( 290.0296108381325600, 2.449293598294736500E-015, -20.00000000000024900 ) ) ;
#25 = VERTEX_POINT ( 'NONE', #73 ) ;
#26 = DIRECTION ( 'NONE',  ( 0.0000000000000000000, 0.0000000000000000000, 1.000000000000000000 ) ) ;
#27 = LINE ( 'NONE', #217, #218 ) ;
#28 = DIRECTION ( 'NONE',  ( 0.0000000000000000000, 0.0000000000000000000, 1.000000000000000000 ) ) ;
#29 = VERTEX_POINT ( 'NONE', #344 ) ;
#30 = APPLICATION_CONTEXT ( 'automotive_design' ) ;
#31 = VECTOR ( 'NONE', #5, 1000.000000000000000 ) ;
#32 = ORIENTED_EDGE ( 'NONE', *, *, #57, .F. ) ;
#33 = DIRECTION ( 'NONE',  ( 0.0000000000000000000, 1.000000000000000000, 0.0000000000000000000 ) ) ;
#34 = AXIS2_PLACEMENT_3D ( 'NONE', #7, #55, #132 ) ;
#35 = VECTOR ( 'NONE', #291, 1000.000000000000000 ) ;
#36 = DIRECTION ( 'NONE',  ( 0.0000000000000000000, 0.0000000000000000000, 1.000000000000000000 ) ) ;
#37 = EDGE_CURVE ( 'NONE', #139, #25, #178, .T. ) ;
#38 = CYLINDRICAL_SURFACE ( 'NONE', #230, 19.99999999999998900 ) ;
#39 = CIRCLE ( 'NONE', #76, 154.6120000000000200 ) ;
#40 = ORIENTED_EDGE ( 'NONE', *, *, #79, .F. ) ;
#41 = DIRECTION ( 'NONE',  ( 0.0000000000000000000, -1.224646799147353500E-016, 1.000000000000000000 ) ) ;
#42 = AXIS2_PLACEMENT_3D ( 'NONE', #21, #254, #123 ) ;
#43 = ORIENTED_EDGE ( 'NONE', *, *, #37, .F. ) ;
#44 = ORIENTED_EDGE ( 'NONE', *, *, #327, .F. ) ;
#45 = EDGE_CURVE ( 'NONE', #202, #29, #250, .T. ) ;
#46 = DIRECTION ( 'NONE',  ( 0.0000000000000000000, -1.224646799147353200E-016, 1.000000000000000000 ) ) ;
#47 = ORIENTED_EDGE ( 'NONE', *, *, #15, .T. ) ;
#48 = ORIENTED_EDGE ( 'NONE', *, *, #116, .F. ) ;
#49 = EDGE_CURVE ( 'NONE', #183, #346, #91, .T. ) ;
#50 = ORIENTED_EDGE ( 'NONE', *, *, #288, .F. ) ;
#51 = VECTOR ( 'NONE', #3, 1000.000000000000000 ) ;
#52 = CARTESIAN_POINT ( 'NONE',  ( -0.5519199926577972300, 0.0000000000000000000, 0.0000000000000000000 ) ) ;
#53 = CIRCLE ( 'NONE', #10, 20.00000000000020600 ) ;
#54 = STYLED_ITEM ( 'NONE', ( #111 ), #186 ) ;
#55 = DIRECTION ( 'NONE',  ( 0.0000000000000000000, 1.000000000000000000, 0.0000000000000000000 ) ) ;
#56 = ORIENTED_EDGE ( 'NONE', *, *, #301, .F. ) ;
#57 = EDGE_CURVE ( 'NONE', #332, #346, #171, .T. ) ;
#58 = DIRECTION ( 'NONE',  ( -1.000000000000000000, -0.0000000000000000000, -0.0000000000000000000 ) ) ;
#59 = ORIENTED_EDGE ( 'NONE', *, *, #130, .F. ) ;
#60 =( GEOMETRIC_REPRESENTATION_CONTEXT ( 3 ) GLOBAL_UNCERTAINTY_ASSIGNED_CONTEXT ( ( #148 ) ) GLOBAL_UNIT_ASSIGNED_CONTEXT ( ( #345, #158, #338 ) ) REPRESENTATION_CONTEXT ( 'NONE', 'WORKASPACE' ) );
#61 = DIRECTION ( 'NONE',  ( 0.0000000000000000000, 0.0000000000000000000, 1.000000000000000000 ) ) ;
#62 = AXIS2_PLACEMENT_3D ( 'NONE', #52, #326, #22 ) ;
#63 = ADVANCED_FACE ( 'NONE', ( #209 ), #275, .F. ) ;
#64 = DIRECTION ( 'NONE',  ( 0.0000000000000000000, 1.000000000000000000, 0.0000000000000000000 ) ) ;
#65 = DIRECTION ( 'NONE',  ( -1.000000000000000000, -0.0000000000000000000, -0.0000000000000000000 ) ) ;
#66 = DIRECTION ( 'NONE',  ( 0.0000000000000000000, -1.000000000000000000, 0.0000000000000000000 ) ) ;
#67 = CARTESIAN_POINT ( 'NONE',  ( 296.3705931455679700, 0.0000000000000000000, 2.020575370083197100E-014 ) ) ;
#68 = CARTESIAN_POINT ( 'NONE',  ( 295.7639473599880900, 0.0000000000000000000, 19.99999999999976900 ) ) ;
#69 = EDGE_LOOP ( 'NONE', ( #43, #293, #44 ) ) ;
#70 = DIRECTION ( 'NONE',  ( -0.0000000000000000000, 1.000000000000000000, 1.224646799147353200E-016 ) ) ;
#71 = FACE_OUTER_BOUND ( 'NONE', #268, .T. ) ;
#72 = AXIS2_PLACEMENT_3D ( 'NONE', #18, #118, #236 ) ;
#73 = CARTESIAN_POINT ( 'NONE',  ( 291.8840366053522100, 2.449293598294731800E-015, -20.00000000000020600 ) ) ;
#74 = ADVANCED_FACE ( 'NONE', ( #160 ), #233, .T. ) ;
#75 = CIRCLE ( 'NONE', #42, 20.00000000000021300 ) ;
#76 = AXIS2_PLACEMENT_3D ( 'NONE', #246, #297, #155 ) ;
#77 = CARTESIAN_POINT ( 'NONE',  ( 0.0000000000000000000, 0.0000000000000000000, 0.0000000000000000000 ) ) ;
#78 = ORIENTED_EDGE ( 'NONE', *, *, #15, .F. ) ;
#79 = EDGE_CURVE ( 'NONE', #101, #29, #225, .T. ) ;
#80 = ORIENTED_EDGE ( 'NONE', *, *, #259, .T. ) ;
#81 = DIRECTION ( 'NONE',  ( -1.000000000000000000, -0.0000000000000000000, -0.0000000000000000000 ) ) ;
#82 = FILL_AREA_STYLE ('',( #103 ) ) ;
#83 =( NAMED_UNIT ( * ) SI_UNIT ( $, .STERADIAN. ) SOLID_ANGLE_UNIT ( ) );
#84 = ORIENTED_EDGE ( 'NONE', *, *, #306, .F. ) ;
#85 =( GEOMETRIC_REPRESENTATION_CONTEXT ( 3 ) GLOBAL_UNCERTAINTY_ASSIGNED_CONTEXT ( ( #20 ) ) GLOBAL_UNIT_ASSIGNED_CONTEXT ( ( #191, #154, #247 ) ) REPRESENTATION_CONTEXT ( 'NONE', 'WORKASPACE' ) );
#86 = CARTESIAN_POINT ( 'NONE',  ( 288.7305931455679200, 0.0000000000000000000, 6.014252997787014500E-015 ) ) ;
#87 = ORIENTED_EDGE ( 'NONE', *, *, #95, .T. ) ;
#88 = MANIFOLD_SOLID_BREP ( 'Ðý×ª3', #129 ) ;
#89 = DIRECTION ( 'NONE',  ( 0.0000000000000000000, 0.0000000000000000000, 1.000000000000000000 ) ) ;
#90 = AXIS2_PLACEMENT_3D ( 'NONE', #106, #200, #206 ) ;
#91 = CIRCLE ( 'NONE', #266, 101.6699999999999900 ) ;
#92 = AXIS2_PLACEMENT_3D ( 'NONE', #94, #33, #287 ) ;
#93 = ORIENTED_EDGE ( 'NONE', *, *, #190, .T. ) ;
#94 = CARTESIAN_POINT ( 'NONE',  ( 192.2005931455679800, 0.0000000000000000000, 3.398765551226179000E-013 ) ) ;
#95 = EDGE_CURVE ( 'NONE', #101, #25, #127, .T. ) ;
#96 = DIRECTION ( 'NONE',  ( 0.0000000000000000000, 1.000000000000000000, 0.0000000000000000000 ) ) ;
#97 = CARTESIAN_POINT ( 'NONE',  ( 293.8705931455679700, 0.0000000000000000000, 3.461020471260834800E-013 ) ) ;
#98 = SURFACE_SIDE_STYLE ('',( #112 ) ) ;
#99 = FACE_OUTER_BOUND ( 'NONE', #285, .T. ) ;
#100 = SURFACE_STYLE_USAGE ( .BOTH. , #98 ) ;
#101 = VERTEX_POINT ( 'NONE', #192 ) ;
#102 = SPHERICAL_SURFACE ( 'NONE', #308, 329.9850000000000100 ) ;
#103 = FILL_AREA_STYLE_COLOUR ( '', #245 ) ;
#104 = DIRECTION ( 'NONE',  ( 0.0000000000000000000, 0.0000000000000000000, 1.000000000000000000 ) ) ;
#105 = ORIENTED_EDGE ( 'NONE', *, *, #150, .T. ) ;
#106 = CARTESIAN_POINT ( 'NONE',  ( 124.5233095260452400, 0.0000000000000000000, 0.0000000000000000000 ) ) ;
#107 = CARTESIAN_POINT ( 'NONE',  ( 295.7639473599880900, 2.449293598294691900E-015, -19.99999999999976900 ) ) ;
#108 = PRODUCT_DEFINITION ( 'Î´Öª', '', #271, #216 ) ;
#109 = DIRECTION ( 'NONE',  ( 0.0000000000000000000, 0.0000000000000000000, 1.000000000000000000 ) ) ;
#110 = DIRECTION ( 'NONE',  ( 0.0000000000000000000, 0.0000000000000000000, -1.000000000000000000 ) ) ;
#111 = PRESENTATION_STYLE_ASSIGNMENT (( #179 ) ) ;
#112 = SURFACE_STYLE_FILL_AREA ( #314 ) ;
#113 = CARTESIAN_POINT ( 'NONE',  ( -33.61440685443206900, 0.0000000000000000000, 0.0000000000000000000 ) ) ;
#114 = EDGE_CURVE ( 'NONE', #284, #346, #226, .T. ) ;
#115 = DIRECTION ( 'NONE',  ( 0.0000000000000000000, 0.0000000000000000000, 1.000000000000000000 ) ) ;
#116 = EDGE_CURVE ( 'NONE', #165, #332, #342, .T. ) ;
#117 = ADVANCED_FACE ( 'NONE', ( #1 ), #195, .T. ) ;
#118 = DIRECTION ( 'NONE',  ( 0.0000000000000000000, 1.000000000000000000, 0.0000000000000000000 ) ) ;
#119 = ORIENTED_EDGE ( 'NONE', *, *, #147, .F. ) ;
#120 = SHAPE_DEFINITION_REPRESENTATION ( #307, #309 ) ;
#121 = ORIENTED_EDGE ( 'NONE', *, *, #37, .T. ) ;
#122 = SPHERICAL_SURFACE ( 'NONE', #137, 154.6120000000000200 ) ;
#123 = DIRECTION ( 'NONE',  ( 0.0000000000000000000, 0.0000000000000000000, 1.000000000000000000 ) ) ;
#124 = AXIS2_PLACEMENT_3D ( 'NONE', #113, #328, #164 ) ;
#125 = UNCERTAINTY_MEASURE_WITH_UNIT (LENGTH_MEASURE( 1.000000000000000100E-005 ), #131, 'distance_accuracy_value', 'NONE');
#126 = AXIS2_PLACEMENT_3D ( 'NONE', #208, #70, #199 ) ;
#127 = CIRCLE ( 'NONE', #194, 20.00000000000020600 ) ;
#128 = CARTESIAN_POINT ( 'NONE',  ( 192.2005931455679800, 0.0000000000000000000, 3.398765551226179000E-013 ) ) ;
#129 = CLOSED_SHELL ( 'NONE', ( #196, #117, #169, #63, #296, #329 ) ) ;
#130 = EDGE_CURVE ( 'NONE', #263, #284, #255, .T. ) ;
#131 =( LENGTH_UNIT ( ) NAMED_UNIT ( * ) SI_UNIT ( .MILLI., .METRE. ) );
#132 = DIRECTION ( 'NONE',  ( 0.0000000000000000000, 0.0000000000000000000, 1.000000000000000000 ) ) ;
#133 = ADVANCED_FACE ( 'NONE', ( #142 ), #122, .T. ) ;
#134 = EDGE_LOOP ( 'NONE', ( #93, #136, #170, #59 ) ) ;
#135 = APPLICATION_CONTEXT ( 'automotive_design' ) ;
#136 = ORIENTED_EDGE ( 'NONE', *, *, #57, .T. ) ;
#137 = AXIS2_PLACEMENT_3D ( 'NONE', #320, #211, #251 ) ;
#138 = SPHERICAL_SURFACE ( 'NONE', #34, 101.6699999999999900 ) ;
#139 = VERTEX_POINT ( 'NONE', #187 ) ;
#140 = CARTESIAN_POINT ( 'NONE',  ( 290.0296108381325600, 0.0000000000000000000, 0.0000000000000000000 ) ) ;
#141 = CARTESIAN_POINT ( 'NONE',  ( 192.2005931455679800, 0.0000000000000000000, 3.398765551226179000E-013 ) ) ;
#142 = FACE_OUTER_BOUND ( 'NONE', #235, .T. ) ;
#143 = DIRECTION ( 'NONE',  ( 0.0000000000000000000, -1.000000000000000000, 0.0000000000000000000 ) ) ;
#144 = FACE_OUTER_BOUND ( 'NONE', #221, .T. ) ;
#145 = PRESENTATION_LAYER_ASSIGNMENT (  '', '', ( #54 ) ) ;
#146 =( NAMED_UNIT ( * ) PLANE_ANGLE_UNIT ( ) SI_UNIT ( $, .RADIAN. ) );
#147 = EDGE_CURVE ( 'NONE', #29, #202, #16, .T. ) ;
#148 = UNCERTAINTY_MEASURE_WITH_UNIT (LENGTH_MEASURE( 1.000000000000000100E-005 ), #345, 'distance_accuracy_value', 'NONE');
#149 = CARTESIAN_POINT ( 'NONE',  ( -0.5519199926577972300, 2.449293598294705300E-015, -19.99999999999998900 ) ) ;
#150 = EDGE_CURVE ( 'NONE', #202, #281, #39, .T. ) ;
#151 = EDGE_LOOP ( 'NONE', ( #231, #294, #277 ) ) ;
#152 = DIRECTION ( 'NONE',  ( -0.0000000000000000000, 1.000000000000000000, 1.224646799147353200E-016 ) ) ;
#153 =( LENGTH_UNIT ( ) NAMED_UNIT ( * ) SI_UNIT ( .MILLI., .METRE. ) );
#154 =( NAMED_UNIT ( * ) PLANE_ANGLE_UNIT ( ) SI_UNIT ( $, .RADIAN. ) );
#155 = DIRECTION ( 'NONE',  ( 0.0000000000000000000, -1.224646799147353200E-016, 1.000000000000000000 ) ) ;
#156 = APPLICATION_PROTOCOL_DEFINITION ( 'draft international standard', 'automotive_design', 1998, #30 ) ;
#157 = PRODUCT_RELATED_PRODUCT_CATEGORY ( 'part', '', ( #2 ) ) ;
#158 =( NAMED_UNIT ( * ) PLANE_ANGLE_UNIT ( ) SI_UNIT ( $, .RADIAN. ) );
#159 = FACE_OUTER_BOUND ( 'NONE', #243, .T. ) ;
#160 = FACE_OUTER_BOUND ( 'NONE', #260, .T. ) ;
#161 = AXIS2_PLACEMENT_3D ( 'NONE', #141, #305, #238 ) ;
#162 = DIRECTION ( 'NONE',  ( 0.0000000000000000000, 0.0000000000000000000, 1.000000000000000000 ) ) ;
#163 = DIRECTION ( 'NONE',  ( -1.000000000000000000, -0.0000000000000000000, -0.0000000000000000000 ) ) ;
#164 = DIRECTION ( 'NONE',  ( 0.0000000000000000000, 0.0000000000000000000, -1.000000000000000000 ) ) ;
#165 = VERTEX_POINT ( 'NONE', #67 ) ;
#166 = COLOUR_RGB ( '',1.000000000000000000, 1.000000000000000000, 1.000000000000000000 ) ;
#167 = AXIS2_PLACEMENT_3D ( 'NONE', #181, #96, #104 ) ;
#168 = ORIENTED_EDGE ( 'NONE', *, *, #147, .T. ) ;
#169 = ADVANCED_FACE ( 'NONE', ( #258 ), #138, .F. ) ;
#170 = ORIENTED_EDGE ( 'NONE', *, *, #114, .F. ) ;
#171 = LINE ( 'NONE', #149, #31 ) ;
#172 = CIRCLE ( 'NONE', #124, 329.9850000000000100 ) ;
#173 =( NAMED_UNIT ( * ) SI_UNIT ( $, .STERADIAN. ) SOLID_ANGLE_UNIT ( ) );
#174 = CARTESIAN_POINT ( 'NONE',  ( 291.8840366053522100, 2.449293598294728600E-015, -19.99999999999984000 ) ) ;
#175 = ORIENTED_EDGE ( 'NONE', *, *, #49, .T. ) ;
#176 = FILL_AREA_STYLE_COLOUR ( '', #166 ) ;
#177 = DIRECTION ( 'NONE',  ( -1.000000000000000000, -0.0000000000000000000, -0.0000000000000000000 ) ) ;
#178 = CIRCLE ( 'NONE', #126, 101.6699999999999900 ) ;
#179 = SURFACE_STYLE_USAGE ( .BOTH. , #207 ) ;
#180 = MECHANICAL_DESIGN_GEOMETRIC_PRESENTATION_REPRESENTATION (  '', ( #312 ), #60 ) ;
#181 = CARTESIAN_POINT ( 'NONE',  ( 443.3425931455679500, 0.0000000000000000000, -3.453001547701516100E-015 ) ) ;
#182 = ORIENTED_EDGE ( 'NONE', *, *, #237, .T. ) ;
#183 = VERTEX_POINT ( 'NONE', #97 ) ;
#184 = CARTESIAN_POINT ( 'NONE',  ( 295.7639473599880900, 0.0000000000000000000, 0.0000000000000000000 ) ) ;
#185 = ORIENTED_EDGE ( 'NONE', *, *, #188, .T. ) ;
#186 = MANIFOLD_SOLID_BREP ( 'Ðý×ª1', #317 ) ;
#187 = CARTESIAN_POINT ( 'NONE',  ( 293.8705931455679700, 0.0000000000000000000, 3.461020471260834800E-013 ) ) ;
#188 = EDGE_CURVE ( 'NONE', #165, #263, #172, .T. ) ;
#189 = FACE_OUTER_BOUND ( 'NONE', #69, .T. ) ;
#190 = EDGE_CURVE ( 'NONE', #263, #332, #283, .T. ) ;
#191 =( LENGTH_UNIT ( ) NAMED_UNIT ( * ) SI_UNIT ( .MILLI., .METRE. ) );
#192 = CARTESIAN_POINT ( 'NONE',  ( 291.8840366053522100, 0.0000000000000000000, 20.00000000000020600 ) ) ;
#193 = ADVANCED_FACE ( 'NONE', ( #8 ), #323, .T. ) ;
#194 = AXIS2_PLACEMENT_3D ( 'NONE', #234, #11, #272 ) ;
#195 = CYLINDRICAL_SURFACE ( 'NONE', #62, 19.99999999999998900 ) ;
#196 = ADVANCED_FACE ( 'NONE', ( #71 ), #102, .T. ) ;
#197 = DIRECTION ( 'NONE',  ( -0.0000000000000000000, 1.000000000000000000, 1.224646799147353200E-016 ) ) ;
#198 = CARTESIAN_POINT ( 'NONE',  ( -0.5519199926577972300, 0.0000000000000000000, 0.0000000000000000000 ) ) ;
#199 = DIRECTION ( 'NONE',  ( 0.0000000000000000000, -1.224646799147353200E-016, 1.000000000000000000 ) ) ;
#200 = DIRECTION ( 'NONE',  ( -1.000000000000000000, -0.0000000000000000000, -0.0000000000000000000 ) ) ;
#201 =( NAMED_UNIT ( * ) PLANE_ANGLE_UNIT ( ) SI_UNIT ( $, .RADIAN. ) );
#202 = VERTEX_POINT ( 'NONE', #24 ) ;
#203 = PRODUCT_CONTEXT ( 'NONE', #135, 'mechanical' ) ;
#204 = AXIS2_PLACEMENT_3D ( 'NONE', #276, #163, #36 ) ;
#205 = ORIENTED_EDGE ( 'NONE', *, *, #150, .F. ) ;
#206 = DIRECTION ( 'NONE',  ( 0.0000000000000000000, 0.0000000000000000000, 1.000000000000000000 ) ) ;
#207 = SURFACE_SIDE_STYLE ('',( #337 ) ) ;
#208 = CARTESIAN_POINT ( 'NONE',  ( 192.2005931455679800, 0.0000000000000000000, 3.398765551226179000E-013 ) ) ;
#209 = FACE_OUTER_BOUND ( 'NONE', #151, .T. ) ;
#210 = PRESENTATION_STYLE_ASSIGNMENT (( #223 ) ) ;
#211 = DIRECTION ( 'NONE',  ( 0.0000000000000000000, 1.000000000000000000, 0.0000000000000000000 ) ) ;
#212 = AXIS2_PLACEMENT_3D ( 'NONE', #311, #81, #347 ) ;
#213 = DIRECTION ( 'NONE',  ( 0.0000000000000000000, 0.0000000000000000000, -1.000000000000000000 ) ) ;
#214 =( GEOMETRIC_REPRESENTATION_CONTEXT ( 3 ) GLOBAL_UNCERTAINTY_ASSIGNED_CONTEXT ( ( #125 ) ) GLOBAL_UNIT_ASSIGNED_CONTEXT ( ( #131, #146, #83 ) ) REPRESENTATION_CONTEXT ( 'NONE', 'WORKASPACE' ) );
#215 = FACE_OUTER_BOUND ( 'NONE', #319, .T. ) ;
#216 = PRODUCT_DEFINITION_CONTEXT ( 'detailed design', #30, 'design' ) ;
#217 = CARTESIAN_POINT ( 'NONE',  ( 124.5233095260452400, 2.449293598294731800E-015, -20.00000000000021000 ) ) ;
#218 = VECTOR ( 'NONE', #269, 1000.000000000000000 ) ;
#219 = SURFACE_STYLE_FILL_AREA ( #82 ) ;
#220 = AXIS2_PLACEMENT_3D ( 'NONE', #264, #341, #115 ) ;
#221 = EDGE_LOOP ( 'NONE', ( #240, #299, #335, #322 ) ) ;
#222 = CIRCLE ( 'NONE', #315, 154.6120000000000200 ) ;
#223 = SURFACE_STYLE_USAGE ( .BOTH. , #336 ) ;
#224 = MECHANICAL_DESIGN_GEOMETRIC_PRESENTATION_REPRESENTATION (  '', ( #289 ), #214 ) ;
#225 = LINE ( 'NONE', #265, #51 ) ;
#226 = CIRCLE ( 'NONE', #212, 20.00000000000021300 ) ;
#227 = EDGE_LOOP ( 'NONE', ( #84, #175, #47 ) ) ;
#228 = AXIS2_PLACEMENT_3D ( 'NONE', #128, #66, #110 ) ;
#229 = CARTESIAN_POINT ( 'NONE',  ( 291.8840366053522100, 0.0000000000000000000, 0.0000000000000000000 ) ) ;
#230 = AXIS2_PLACEMENT_3D ( 'NONE', #198, #65, #28 ) ;
#231 = ORIENTED_EDGE ( 'NONE', *, *, #49, .F. ) ;
#232 = DIRECTION ( 'NONE',  ( -1.000000000000000000, -0.0000000000000000000, -0.0000000000000000000 ) ) ;
#233 = SPHERICAL_SURFACE ( 'NONE', #167, 154.6120000000000200 ) ;
#234 = CARTESIAN_POINT ( 'NONE',  ( 291.8840366053522100, 0.0000000000000000000, 0.0000000000000000000 ) ) ;
#235 = EDGE_LOOP ( 'NONE', ( #168, #105, #261 ) ) ;
#236 = DIRECTION ( 'NONE',  ( 0.0000000000000000000, 0.0000000000000000000, 1.000000000000000000 ) ) ;
#237 = EDGE_CURVE ( 'NONE', #25, #202, #27, .T. ) ;
#238 = DIRECTION ( 'NONE',  ( 0.0000000000000000000, 0.0000000000000000000, -1.000000000000000000 ) ) ;
#239 = PRESENTATION_STYLE_ASSIGNMENT (( #100 ) ) ;
#240 = ORIENTED_EDGE ( 'NONE', *, *, #237, .F. ) ;
#241 = COLOUR_RGB ( '',1.000000000000000000, 1.000000000000000000, 1.000000000000000000 ) ;
#242 = CARTESIAN_POINT ( 'NONE',  ( 443.3425931455679500, 0.0000000000000000000, -3.453001547701516100E-015 ) ) ;
#243 = EDGE_LOOP ( 'NONE', ( #56, #121, #13 ) ) ;
#244 = PRESENTATION_LAYER_ASSIGNMENT (  '', '', ( #289 ) ) ;
#245 = COLOUR_RGB ( '',1.000000000000000000, 1.000000000000000000, 1.000000000000000000 ) ;
#246 = CARTESIAN_POINT ( 'NONE',  ( 443.3425931455679500, 0.0000000000000000000, -3.453001547701516100E-015 ) ) ;
#247 =( NAMED_UNIT ( * ) SI_UNIT ( $, .STERADIAN. ) SOLID_ANGLE_UNIT ( ) );
#248 = CARTESIAN_POINT ( 'NONE',  ( 192.2005931455679800, 0.0000000000000000000, 3.398765551226179000E-013 ) ) ;
#249 = AXIS2_PLACEMENT_3D ( 'NONE', #77, #330, #321 ) ;
#250 = CIRCLE ( 'NONE', #302, 20.00000000000021300 ) ;
#251 = DIRECTION ( 'NONE',  ( 0.0000000000000000000, 0.0000000000000000000, 1.000000000000000000 ) ) ;
#252 = CYLINDRICAL_SURFACE ( 'NONE', #90, 20.00000000000021000 ) ;
#253 = AXIS2_PLACEMENT_3D ( 'NONE', #4, #334, #303 ) ;
#254 = DIRECTION ( 'NONE',  ( -1.000000000000000000, -0.0000000000000000000, -0.0000000000000000000 ) ) ;
#255 = LINE ( 'NONE', #298, #35 ) ;
#256 = CIRCLE ( 'NONE', #278, 19.99999999999976900 ) ;
#257 = CIRCLE ( 'NONE', #228, 101.6699999999999900 ) ;
#258 = FACE_OUTER_BOUND ( 'NONE', #227, .T. ) ;
#259 = EDGE_CURVE ( 'NONE', #29, #281, #222, .T. ) ;
#260 = EDGE_LOOP ( 'NONE', ( #205, #19, #80 ) ) ;
#261 = ORIENTED_EDGE ( 'NONE', *, *, #259, .F. ) ;
#262 = ADVANCED_FACE ( 'NONE', ( #189 ), #23, .T. ) ;
#263 = VERTEX_POINT ( 'NONE', #68 ) ;
#264 = CARTESIAN_POINT ( 'NONE',  ( 192.2005931455679800, 0.0000000000000000000, 3.398765551226179000E-013 ) ) ;
#265 = CARTESIAN_POINT ( 'NONE',  ( 124.5233095260452400, 0.0000000000000000000, 20.00000000000021000 ) ) ;
#266 = AXIS2_PLACEMENT_3D ( 'NONE', #248, #152, #46 ) ;
#267 = CARTESIAN_POINT ( 'NONE',  ( 295.7639473599880900, 0.0000000000000000000, 0.0000000000000000000 ) ) ;
#268 = EDGE_LOOP ( 'NONE', ( #270, #17, #339 ) ) ;
#269 = DIRECTION ( 'NONE',  ( -1.000000000000000000, -0.0000000000000000000, -0.0000000000000000000 ) ) ;
#270 = ORIENTED_EDGE ( 'NONE', *, *, #188, .F. ) ;
#271 = PRODUCT_DEFINITION_FORMATION_WITH_SPECIFIED_SOURCE ( 'ÈÎºÎ', '', #2, .NOT_KNOWN. ) ;
#272 = DIRECTION ( 'NONE',  ( 0.0000000000000000000, 0.0000000000000000000, 1.000000000000000000 ) ) ;
#273 = ORIENTED_EDGE ( 'NONE', *, *, #288, .T. ) ;
#274 = APPLICATION_PROTOCOL_DEFINITION ( 'draft international standard', 'automotive_design', 1998, #135 ) ;
#275 = SPHERICAL_SURFACE ( 'NONE', #92, 101.6699999999999900 ) ;
#276 = CARTESIAN_POINT ( 'NONE',  ( 124.5233095260452400, 0.0000000000000000000, 0.0000000000000000000 ) ) ;
#277 = ORIENTED_EDGE ( 'NONE', *, *, #114, .T. ) ;
#278 = AXIS2_PLACEMENT_3D ( 'NONE', #184, #232, #26 ) ;
#279 = UNCERTAINTY_MEASURE_WITH_UNIT (LENGTH_MEASURE( 1.000000000000000100E-005 ), #153, 'distance_accuracy_value', 'NONE');
#280 = FILL_AREA_STYLE_COLOUR ( '', #241 ) ;
#281 = VERTEX_POINT ( 'NONE', #86 ) ;
#282 = AXIS2_PLACEMENT_3D ( 'NONE', #140, #295, #89 ) ;
#283 = CIRCLE ( 'NONE', #292, 19.99999999999976900 ) ;
#284 = VERTEX_POINT ( 'NONE', #12 ) ;
#285 = EDGE_LOOP ( 'NONE', ( #32, #273, #333, #78 ) ) ;
#286 = AXIS2_PLACEMENT_3D ( 'NONE', #316, #197, #41 ) ;
#287 = DIRECTION ( 'NONE',  ( 0.0000000000000000000, 0.0000000000000000000, 1.000000000000000000 ) ) ;
#288 = EDGE_CURVE ( 'NONE', #332, #263, #256, .T. ) ;
#289 = STYLED_ITEM ( 'NONE', ( #239 ), #309 ) ;
#290 = EDGE_LOOP ( 'NONE', ( #87, #182, #119, #40 ) ) ;
#291 = DIRECTION ( 'NONE',  ( -1.000000000000000000, -0.0000000000000000000, -0.0000000000000000000 ) ) ;
#292 = AXIS2_PLACEMENT_3D ( 'NONE', #267, #177, #61 ) ;
#293 = ORIENTED_EDGE ( 'NONE', *, *, #301, .T. ) ;
#294 = ORIENTED_EDGE ( 'NONE', *, *, #306, .T. ) ;
#295 = DIRECTION ( 'NONE',  ( -1.000000000000000000, -0.0000000000000000000, -0.0000000000000000000 ) ) ;
#296 = ADVANCED_FACE ( 'NONE', ( #99 ), #38, .T. ) ;
#297 = DIRECTION ( 'NONE',  ( -0.0000000000000000000, 1.000000000000000000, 1.224646799147353200E-016 ) ) ;
#298 = CARTESIAN_POINT ( 'NONE',  ( -0.5519199926577972300, 0.0000000000000000000, 19.99999999999998900 ) ) ;
#299 = ORIENTED_EDGE ( 'NONE', *, *, #327, .T. ) ;
#300 = DIRECTION ( 'NONE',  ( -1.000000000000000000, -0.0000000000000000000, -0.0000000000000000000 ) ) ;
#301 = EDGE_CURVE ( 'NONE', #139, #101, #313, .T. ) ;
#302 = AXIS2_PLACEMENT_3D ( 'NONE', #310, #58, #162 ) ;
#303 = DIRECTION ( 'NONE',  ( 0.0000000000000000000, 0.0000000000000000000, 1.000000000000000000 ) ) ;
#304 = SPHERICAL_SURFACE ( 'NONE', #220, 101.6699999999999900 ) ;
#305 = DIRECTION ( 'NONE',  ( 0.0000000000000000000, -1.000000000000000000, 0.0000000000000000000 ) ) ;
#306 = EDGE_CURVE ( 'NONE', #183, #284, #257, .T. ) ;
#307 = PRODUCT_DEFINITION_SHAPE ( 'NONE', 'NONE',  #108 ) ;
#308 = AXIS2_PLACEMENT_3D ( 'NONE', #324, #64, #318 ) ;
#309 = ADVANCED_BREP_SHAPE_REPRESENTATION ( '145075', ( #186, #88, #249 ), #85 ) ;
#310 = CARTESIAN_POINT ( 'NONE',  ( 290.0296108381325600, 0.0000000000000000000, 0.0000000000000000000 ) ) ;
#311 = CARTESIAN_POINT ( 'NONE',  ( 291.8840366053522100, 0.0000000000000000000, 0.0000000000000000000 ) ) ;
#312 = STYLED_ITEM ( 'NONE', ( #210 ), #88 ) ;
#313 = CIRCLE ( 'NONE', #161, 101.6699999999999900 ) ;
#314 = FILL_AREA_STYLE ('',( #176 ) ) ;
#315 = AXIS2_PLACEMENT_3D ( 'NONE', #242, #143, #213 ) ;
#316 = CARTESIAN_POINT ( 'NONE',  ( -33.61440685443206900, 0.0000000000000000000, 0.0000000000000000000 ) ) ;
#317 = CLOSED_SHELL ( 'NONE', ( #343, #193, #133, #74, #14, #262 ) ) ;
#318 = DIRECTION ( 'NONE',  ( 0.0000000000000000000, 0.0000000000000000000, 1.000000000000000000 ) ) ;
#319 = EDGE_LOOP ( 'NONE', ( #48, #185, #50 ) ) ;
#320 = CARTESIAN_POINT ( 'NONE',  ( 443.3425931455679500, 0.0000000000000000000, -3.453001547701516100E-015 ) ) ;
#321 = DIRECTION ( 'NONE',  ( 1.000000000000000000, 0.0000000000000000000, 0.0000000000000000000 ) ) ;
#322 = ORIENTED_EDGE ( 'NONE', *, *, #45, .F. ) ;
#323 = CYLINDRICAL_SURFACE ( 'NONE', #204, 20.00000000000021000 ) ;
#324 = CARTESIAN_POINT ( 'NONE',  ( -33.61440685443206900, 0.0000000000000000000, 0.0000000000000000000 ) ) ;
#325 =( GEOMETRIC_REPRESENTATION_CONTEXT ( 3 ) GLOBAL_UNCERTAINTY_ASSIGNED_CONTEXT ( ( #279 ) ) GLOBAL_UNIT_ASSIGNED_CONTEXT ( ( #153, #201, #173 ) ) REPRESENTATION_CONTEXT ( 'NONE', 'WORKASPACE' ) );
#326 = DIRECTION ( 'NONE',  ( -1.000000000000000000, -0.0000000000000000000, -0.0000000000000000000 ) ) ;
#327 = EDGE_CURVE ( 'NONE', #25, #101, #53, .T. ) ;
#328 = DIRECTION ( 'NONE',  ( 0.0000000000000000000, -1.000000000000000000, 0.0000000000000000000 ) ) ;
#329 = ADVANCED_FACE ( 'NONE', ( #215 ), #6, .T. ) ;
#330 = DIRECTION ( 'NONE',  ( 0.0000000000000000000, 0.0000000000000000000, 1.000000000000000000 ) ) ;
#331 = PRESENTATION_LAYER_ASSIGNMENT (  '', '', ( #312 ) ) ;
#332 = VERTEX_POINT ( 'NONE', #107 ) ;
#333 = ORIENTED_EDGE ( 'NONE', *, *, #130, .T. ) ;
#334 = DIRECTION ( 'NONE',  ( 0.0000000000000000000, 1.000000000000000000, 0.0000000000000000000 ) ) ;
#335 = ORIENTED_EDGE ( 'NONE', *, *, #79, .T. ) ;
#336 = SURFACE_SIDE_STYLE ('',( #219 ) ) ;
#337 = SURFACE_STYLE_FILL_AREA ( #9 ) ;
#338 =( NAMED_UNIT ( * ) SI_UNIT ( $, .STERADIAN. ) SOLID_ANGLE_UNIT ( ) );
#339 = ORIENTED_EDGE ( 'NONE', *, *, #190, .F. ) ;
#340 = MECHANICAL_DESIGN_GEOMETRIC_PRESENTATION_REPRESENTATION (  '', ( #54 ), #325 ) ;
#341 = DIRECTION ( 'NONE',  ( 0.0000000000000000000, 1.000000000000000000, 0.0000000000000000000 ) ) ;
#342 = CIRCLE ( 'NONE', #286, 329.9850000000000100 ) ;
#343 = ADVANCED_FACE ( 'NONE', ( #159 ), #304, .T. ) ;
#344 = CARTESIAN_POINT ( 'NONE',  ( 290.0296108381325600, 0.0000000000000000000, 20.00000000000024500 ) ) ;
#345 =( LENGTH_UNIT ( ) NAMED_UNIT ( * ) SI_UNIT ( .MILLI., .METRE. ) );
#346 = VERTEX_POINT ( 'NONE', #174 ) ;
#347 = DIRECTION ( 'NONE',  ( 0.0000000000000000000, 0.0000000000000000000, 1.000000000000000000 ) ) ;
ENDSEC;
END-ISO-10303-21;
