ISO-10303-21;
HEADER;
FILE_DESCRIPTION (( 'STEP AP214' ),
    '1' );
FILE_NAME ('145073.STEP',
    '2019-05-15T06:09:25',
    ( 'user' ),
    ( 'Î¢ÈíÖÐ¹ú' ),
    'SwSTEP 2.0',
    'SolidWorks 2016',
    '' );
FILE_SCHEMA (( 'AUTOMOTIVE_DESIGN' ));
ENDSEC;

DATA;
#1 = DIRECTION ( 'NONE',  ( 0.0000000000000000000, 0.0000000000000000000, 1.000000000000000000 ) ) ;
#2 = AXIS2_PLACEMENT_3D ( 'NONE', #39, #145, #176 ) ;
#3 = ADVANCED_FACE ( 'NONE', ( #308 ), #47, .T. ) ;
#4 = MANIFOLD_SOLID_BREP ( 'Ðý×ª3', #131 ) ;
#5 = EDGE_CURVE ( 'NONE', #162, #181, #318, .T. ) ;
#6 = VERTEX_POINT ( 'NONE', #22 ) ;
#7 = MECHANICAL_DESIGN_GEOMETRIC_PRESENTATION_REPRESENTATION (  '', ( #320 ), #29 ) ;
#8 = FACE_OUTER_BOUND ( 'NONE', #137, .T. ) ;
#9 = EDGE_LOOP ( 'NONE', ( #289, #160, #95, #291 ) ) ;
#10 = DIRECTION ( 'NONE',  ( 0.0000000000000000000, -1.224646799147353000E-016, 1.000000000000000000 ) ) ;
#11 = CARTESIAN_POINT ( 'NONE',  ( -0.5519199926577972300, 0.0000000000000000000, 0.0000000000000000000 ) ) ;
#12 = UNCERTAINTY_MEASURE_WITH_UNIT (LENGTH_MEASURE( 1.000000000000000100E-005 ), #83, 'distance_accuracy_value', 'NONE');
#13 = AXIS2_PLACEMENT_3D ( 'NONE', #163, #1, #188 ) ;
#14 = EDGE_LOOP ( 'NONE', ( #87, #344, #332 ) ) ;
#15 = DIRECTION ( 'NONE',  ( -1.000000000000000000, -0.0000000000000000000, -0.0000000000000000000 ) ) ;
#16 = DIRECTION ( 'NONE',  ( 0.0000000000000000000, -1.000000000000000000, 0.0000000000000000000 ) ) ;
#17 = EDGE_CURVE ( 'NONE', #24, #6, #114, .T. ) ;
#18 = CARTESIAN_POINT ( 'NONE',  ( 124.5233095260452400, 2.449293598294706900E-015, -20.00000000000000400 ) ) ;
#19 = ORIENTED_EDGE ( 'NONE', *, *, #267, .T. ) ;
#20 = DIRECTION ( 'NONE',  ( -1.000000000000000000, -0.0000000000000000000, -0.0000000000000000000 ) ) ;
#21 = AXIS2_PLACEMENT_3D ( 'NONE', #157, #343, #184 ) ;
#22 = CARTESIAN_POINT ( 'NONE',  ( 272.9422565774712000, 2.449293598294707300E-015, -19.99999999999999600 ) ) ;
#23 = VECTOR ( 'NONE', #128, 1000.000000000000000 ) ;
#24 = VERTEX_POINT ( 'NONE', #256 ) ;
#25 = DIRECTION ( 'NONE',  ( 0.0000000000000000000, 1.000000000000000000, 0.0000000000000000000 ) ) ;
#26 = DIRECTION ( 'NONE',  ( -1.000000000000000000, -0.0000000000000000000, -0.0000000000000000000 ) ) ;
#27 = DIRECTION ( 'NONE',  ( 0.0000000000000000000, 0.0000000000000000000, 1.000000000000000000 ) ) ;
#28 = ORIENTED_EDGE ( 'NONE', *, *, #193, .T. ) ;
#29 =( GEOMETRIC_REPRESENTATION_CONTEXT ( 3 ) GLOBAL_UNCERTAINTY_ASSIGNED_CONTEXT ( ( #70 ) ) GLOBAL_UNIT_ASSIGNED_CONTEXT ( ( #53, #230, #65 ) ) REPRESENTATION_CONTEXT ( 'NONE', 'WORKASPACE' ) );
#30 = APPLICATION_PROTOCOL_DEFINITION ( 'draft international standard', 'automotive_design', 1998, #60 ) ;
#31 = PRODUCT_CONTEXT ( 'NONE', #60, 'mechanical' ) ;
#32 = ADVANCED_FACE ( 'NONE', ( #212 ), #85, .T. ) ;
#33 = EDGE_CURVE ( 'NONE', #167, #302, #272, .T. ) ;
#34 = CIRCLE ( 'NONE', #330, 20.00000000000001100 ) ;
#35 = EDGE_LOOP ( 'NONE', ( #124, #139, #113 ) ) ;
#36 = PRODUCT_DEFINITION ( 'Î´Öª', '', #55, #100 ) ;
#37 = ORIENTED_EDGE ( 'NONE', *, *, #247, .T. ) ;
#38 = VECTOR ( 'NONE', #26, 1000.000000000000000 ) ;
#39 = CARTESIAN_POINT ( 'NONE',  ( 332.5601532013300200, 0.0000000000000000000, 6.838216917541233200E-015 ) ) ;
#40 = PRODUCT_DEFINITION_SHAPE ( 'NONE', 'NONE',  #36 ) ;
#41 = AXIS2_PLACEMENT_3D ( 'NONE', #287, #25, #206 ) ;
#42 = FACE_OUTER_BOUND ( 'NONE', #98, .T. ) ;
#43 = CARTESIAN_POINT ( 'NONE',  ( 143.3131532013300700, 0.0000000000000000000, 0.0000000000000000000 ) ) ;
#44 = VERTEX_POINT ( 'NONE', #122 ) ;
#45 = DIRECTION ( 'NONE',  ( 0.0000000000000000000, -1.000000000000000000, 0.0000000000000000000 ) ) ;
#46 = CARTESIAN_POINT ( 'NONE',  ( 271.2171875002816800, 0.0000000000000000000, 0.0000000000000000000 ) ) ;
#47 = CYLINDRICAL_SURFACE ( 'NONE', #295, 20.00000000000000000 ) ;
#48 = DIRECTION ( 'NONE',  ( 0.0000000000000000000, 1.000000000000000000, 0.0000000000000000000 ) ) ;
#49 = AXIS2_PLACEMENT_3D ( 'NONE', #253, #45, #222 ) ;
#50 = DIRECTION ( 'NONE',  ( 0.0000000000000000000, 1.000000000000000000, -0.0000000000000000000 ) ) ;
#51 = FACE_OUTER_BOUND ( 'NONE', #207, .T. ) ;
#52 = ORIENTED_EDGE ( 'NONE', *, *, #247, .F. ) ;
#53 =( LENGTH_UNIT ( ) NAMED_UNIT ( * ) SI_UNIT ( .MILLI., .METRE. ) );
#54 = CARTESIAN_POINT ( 'NONE',  ( -0.5519199926577972300, 0.0000000000000000000, 20.00000000000000000 ) ) ;
#55 = PRODUCT_DEFINITION_FORMATION_WITH_SPECIFIED_SOURCE ( 'ÈÎºÎ', '', #228, .NOT_KNOWN. ) ;
#56 = CARTESIAN_POINT ( 'NONE',  ( 230.0841532013300500, 0.0000000000000000000, 7.363275505057532400E-015 ) ) ;
#57 = CLOSED_SHELL ( 'NONE', ( #266, #324, #215, #32, #109, #241 ) ) ;
#58 = CARTESIAN_POINT ( 'NONE',  ( 272.9422565774712000, 0.0000000000000000000, 0.0000000000000000000 ) ) ;
#59 = SURFACE_SIDE_STYLE ('',( #170 ) ) ;
#60 = APPLICATION_CONTEXT ( 'automotive_design' ) ;
#61 = APPLICATION_PROTOCOL_DEFINITION ( 'draft international standard', 'automotive_design', 1998, #214 ) ;
#62 = ADVANCED_FACE ( 'NONE', ( #8 ), #67, .T. ) ;
#63 = SPHERICAL_SURFACE ( 'NONE', #134, 136.5659999999999700 ) ;
#64 = AXIS2_PLACEMENT_3D ( 'NONE', #317, #158, #345 ) ;
#65 =( NAMED_UNIT ( * ) SI_UNIT ( $, .STERADIAN. ) SOLID_ANGLE_UNIT ( ) );
#66 = AXIS2_PLACEMENT_3D ( 'NONE', #338, #77, #153 ) ;
#67 = CYLINDRICAL_SURFACE ( 'NONE', #117, 20.00000000000000000 ) ;
#68 = ORIENTED_EDGE ( 'NONE', *, *, #33, .T. ) ;
#69 = CARTESIAN_POINT ( 'NONE',  ( 279.8791532013300400, 0.0000000000000000000, 8.362255738617869400E-015 ) ) ;
#70 = UNCERTAINTY_MEASURE_WITH_UNIT (LENGTH_MEASURE( 1.000000000000000100E-005 ), #53, 'distance_accuracy_value', 'NONE');
#71 = EDGE_CURVE ( 'NONE', #74, #181, #136, .T. ) ;
#72 = DIRECTION ( 'NONE',  ( -1.000000000000000000, -0.0000000000000000000, -0.0000000000000000000 ) ) ;
#73 = PRODUCT_RELATED_PRODUCT_CATEGORY ( 'part', '', ( #228 ) ) ;
#74 = VERTEX_POINT ( 'NONE', #96 ) ;
#75 = DIRECTION ( 'NONE',  ( 0.0000000000000000000, 0.0000000000000000000, 1.000000000000000000 ) ) ;
#76 = FACE_OUTER_BOUND ( 'NONE', #223, .T. ) ;
#77 = DIRECTION ( 'NONE',  ( -0.0000000000000000000, -1.000000000000000000, -0.0000000000000000000 ) ) ;
#78 = AXIS2_PLACEMENT_3D ( 'NONE', #56, #103, #235 ) ;
#79 = EDGE_CURVE ( 'NONE', #91, #44, #284, .T. ) ;
#80 = ORIENTED_EDGE ( 'NONE', *, *, #210, .F. ) ;
#81 = CARTESIAN_POINT ( 'NONE',  ( -0.5519199926577972300, 2.449293598294706500E-015, -20.00000000000000000 ) ) ;
#82 = DIRECTION ( 'NONE',  ( 0.0000000000000000000, 0.0000000000000000000, 1.000000000000000000 ) ) ;
#83 =( LENGTH_UNIT ( ) NAMED_UNIT ( * ) SI_UNIT ( .MILLI., .METRE. ) );
#84 = AXIS2_PLACEMENT_3D ( 'NONE', #43, #172, #10 ) ;
#85 = SPHERICAL_SURFACE ( 'NONE', #66, 64.52099999999997200 ) ;
#86 = SURFACE_SIDE_STYLE ('',( #319 ) ) ;
#87 = ORIENTED_EDGE ( 'NONE', *, *, #33, .F. ) ;
#88 = ADVANCED_FACE ( 'NONE', ( #339 ), #178, .F. ) ;
#89 = ORIENTED_EDGE ( 'NONE', *, *, #5, .T. ) ;
#90 = DIRECTION ( 'NONE',  ( 0.0000000000000000000, 0.0000000000000000000, 1.000000000000000000 ) ) ;
#91 = VERTEX_POINT ( 'NONE', #69 ) ;
#92 = AXIS2_PLACEMENT_3D ( 'NONE', #58, #236, #82 ) ;
#93 = DIRECTION ( 'NONE',  ( 0.0000000000000000000, -1.000000000000000000, -1.224646799147353200E-016 ) ) ;
#94 = LINE ( 'NONE', #130, #276 ) ;
#95 = ORIENTED_EDGE ( 'NONE', *, *, #260, .T. ) ;
#96 = CARTESIAN_POINT ( 'NONE',  ( 271.2171875002816800, -2.449293598294706500E-015, 20.00000000000001100 ) ) ;
#97 = DIRECTION ( 'NONE',  ( 0.0000000000000000000, 0.0000000000000000000, 1.000000000000000000 ) ) ;
#98 = EDGE_LOOP ( 'NONE', ( #279, #200, #269 ) ) ;
#99 = AXIS2_PLACEMENT_3D ( 'NONE', #301, #93, #277 ) ;
#100 = PRODUCT_DEFINITION_CONTEXT ( 'detailed design', #214, 'design' ) ;
#101 = SPHERICAL_SURFACE ( 'NONE', #2, 64.52099999999997200 ) ;
#102 = ORIENTED_EDGE ( 'NONE', *, *, #154, .T. ) ;
#103 = DIRECTION ( 'NONE',  ( 0.0000000000000000000, 1.000000000000000000, 0.0000000000000000000 ) ) ;
#104 = VERTEX_POINT ( 'NONE', #333 ) ;
#105 =( NAMED_UNIT ( * ) SI_UNIT ( $, .STERADIAN. ) SOLID_ANGLE_UNIT ( ) );
#106 = LINE ( 'NONE', #81, #38 ) ;
#107 =( LENGTH_UNIT ( ) NAMED_UNIT ( * ) SI_UNIT ( .MILLI., .METRE. ) );
#108 = CIRCLE ( 'NONE', #129, 20.00000000000000700 ) ;
#109 = ADVANCED_FACE ( 'NONE', ( #265 ), #331, .T. ) ;
#110 = STYLED_ITEM ( 'NONE', ( #245 ), #341 ) ;
#111 = VECTOR ( 'NONE', #305, 1000.000000000000000 ) ;
#112 = ADVANCED_BREP_SHAPE_REPRESENTATION ( '145073', ( #341, #4, #13 ), #216 ) ;
#113 = ORIENTED_EDGE ( 'NONE', *, *, #5, .F. ) ;
#114 = CIRCLE ( 'NONE', #262, 20.00000000000001100 ) ;
#115 = CARTESIAN_POINT ( 'NONE',  ( 272.9422565774712000, 0.0000000000000000000, 0.0000000000000000000 ) ) ;
#116 = CIRCLE ( 'NONE', #64, 47.29499999999998700 ) ;
#117 = AXIS2_PLACEMENT_3D ( 'NONE', #11, #72, #278 ) ;
#118 = SPHERICAL_SURFACE ( 'NONE', #257, 136.5659999999999700 ) ;
#119 = CARTESIAN_POINT ( 'NONE',  ( 124.5233095260452400, 0.0000000000000000000, 0.0000000000000000000 ) ) ;
#120 = ORIENTED_EDGE ( 'NONE', *, *, #260, .F. ) ;
#121 = DIRECTION ( 'NONE',  ( 0.0000000000000000000, 1.000000000000000000, 0.0000000000000000000 ) ) ;
#122 = CARTESIAN_POINT ( 'NONE',  ( 278.4067220934131200, 2.449293598294705700E-015, -19.99999999999998900 ) ) ;
#123 = DIRECTION ( 'NONE',  ( 0.0000000000000000000, 0.0000000000000000000, -1.000000000000000000 ) ) ;
#124 = ORIENTED_EDGE ( 'NONE', *, *, #202, .T. ) ;
#125 = CARTESIAN_POINT ( 'NONE',  ( 277.3791532013300400, 0.0000000000000000000, 1.025925902334123400E-014 ) ) ;
#126 = CIRCLE ( 'NONE', #204, 19.99999999999998900 ) ;
#127 = ORIENTED_EDGE ( 'NONE', *, *, #79, .T. ) ;
#128 = DIRECTION ( 'NONE',  ( -1.000000000000000000, -0.0000000000000000000, -0.0000000000000000000 ) ) ;
#129 = AXIS2_PLACEMENT_3D ( 'NONE', #346, #186, #27 ) ;
#130 = CARTESIAN_POINT ( 'NONE',  ( 124.5233095260452400, 0.0000000000000000000, 20.00000000000000400 ) ) ;
#131 = CLOSED_SHELL ( 'NONE', ( #164, #3, #88, #192, #62, #138 ) ) ;
#132 = DIRECTION ( 'NONE',  ( 0.0000000000000000000, 0.0000000000000000000, 1.000000000000000000 ) ) ;
#133 =( LENGTH_UNIT ( ) NAMED_UNIT ( * ) SI_UNIT ( .MILLI., .METRE. ) );
#134 = AXIS2_PLACEMENT_3D ( 'NONE', #270, #196, #249 ) ;
#135 =( NAMED_UNIT ( * ) SI_UNIT ( $, .STERADIAN. ) SOLID_ANGLE_UNIT ( ) );
#136 = CIRCLE ( 'NONE', #99, 64.52099999999997200 ) ;
#137 = EDGE_LOOP ( 'NONE', ( #307, #37, #325, #259 ) ) ;
#138 = ADVANCED_FACE ( 'NONE', ( #76 ), #63, .T. ) ;
#139 = ORIENTED_EDGE ( 'NONE', *, *, #71, .T. ) ;
#140 = EDGE_CURVE ( 'NONE', #74, #162, #195, .T. ) ;
#141 = FILL_AREA_STYLE_COLOUR ( '', #246 ) ;
#142 = DIRECTION ( 'NONE',  ( 0.0000000000000000000, 0.0000000000000000000, 1.000000000000000000 ) ) ;
#143 = AXIS2_PLACEMENT_3D ( 'NONE', #208, #313, #132 ) ;
#144 = DIRECTION ( 'NONE',  ( -1.000000000000000000, -0.0000000000000000000, -0.0000000000000000000 ) ) ;
#145 = DIRECTION ( 'NONE',  ( -0.0000000000000000000, -1.000000000000000000, -0.0000000000000000000 ) ) ;
#146 = ORIENTED_EDGE ( 'NONE', *, *, #140, .F. ) ;
#147 = CARTESIAN_POINT ( 'NONE',  ( 230.0841532013300500, 0.0000000000000000000, 7.363275505057532400E-015 ) ) ;
#148 = FACE_OUTER_BOUND ( 'NONE', #219, .T. ) ;
#149 = DIRECTION ( 'NONE',  ( 0.0000000000000000000, 0.0000000000000000000, 1.000000000000000000 ) ) ;
#150 = DIRECTION ( 'NONE',  ( 0.0000000000000000000, 0.0000000000000000000, 1.000000000000000000 ) ) ;
#151 = VERTEX_POINT ( 'NONE', #194 ) ;
#152 = AXIS2_PLACEMENT_3D ( 'NONE', #197, #121, #142 ) ;
#153 = DIRECTION ( 'NONE',  ( 0.0000000000000000000, 0.0000000000000000000, -1.000000000000000000 ) ) ;
#154 = EDGE_CURVE ( 'NONE', #226, #44, #126, .T. ) ;
#155 = CARTESIAN_POINT ( 'NONE',  ( 272.9422565774712000, 0.0000000000000000000, 0.0000000000000000000 ) ) ;
#156 = ORIENTED_EDGE ( 'NONE', *, *, #71, .F. ) ;
#157 = CARTESIAN_POINT ( 'NONE',  ( 278.4067220934131200, 0.0000000000000000000, 0.0000000000000000000 ) ) ;
#158 = DIRECTION ( 'NONE',  ( -0.0000000000000000000, 1.000000000000000000, 1.224646799147353200E-016 ) ) ;
#159 = EDGE_CURVE ( 'NONE', #167, #151, #190, .T. ) ;
#160 = ORIENTED_EDGE ( 'NONE', *, *, #334, .T. ) ;
#161 =( NAMED_UNIT ( * ) PLANE_ANGLE_UNIT ( ) SI_UNIT ( $, .RADIAN. ) );
#162 = VERTEX_POINT ( 'NONE', #171 ) ;
#163 = CARTESIAN_POINT ( 'NONE',  ( 0.0000000000000000000, 0.0000000000000000000, 0.0000000000000000000 ) ) ;
#164 = ADVANCED_FACE ( 'NONE', ( #51 ), #118, .T. ) ;
#165 = PRESENTATION_LAYER_ASSIGNMENT (  '', '', ( #110 ) ) ;
#166 = LINE ( 'NONE', #54, #23 ) ;
#167 = VERTEX_POINT ( 'NONE', #125 ) ;
#168 = ORIENTED_EDGE ( 'NONE', *, *, #140, .T. ) ;
#169 = AXIS2_PLACEMENT_3D ( 'NONE', #328, #218, #97 ) ;
#170 = SURFACE_STYLE_FILL_AREA ( #211 ) ;
#171 = CARTESIAN_POINT ( 'NONE',  ( 271.2171875002816800, 0.0000000000000000000, -20.00000000000000400 ) ) ;
#172 = DIRECTION ( 'NONE',  ( -0.0000000000000000000, 1.000000000000000000, 1.224646799147353200E-016 ) ) ;
#173 = SPHERICAL_SURFACE ( 'NONE', #41, 47.29499999999998700 ) ;
#174 = EDGE_LOOP ( 'NONE', ( #102, #294, #297, #217 ) ) ;
#175 = DIRECTION ( 'NONE',  ( 0.0000000000000000000, -1.000000000000000000, 0.0000000000000000000 ) ) ;
#176 = DIRECTION ( 'NONE',  ( 0.0000000000000000000, 0.0000000000000000000, -1.000000000000000000 ) ) ;
#177 = EDGE_CURVE ( 'NONE', #151, #162, #258, .T. ) ;
#178 = SPHERICAL_SURFACE ( 'NONE', #152, 47.29499999999998700 ) ;
#179 = SURFACE_SIDE_STYLE ('',( #254 ) ) ;
#180 = CIRCLE ( 'NONE', #240, 136.5659999999999700 ) ;
#181 = VERTEX_POINT ( 'NONE', #273 ) ;
#182 = MECHANICAL_DESIGN_GEOMETRIC_PRESENTATION_REPRESENTATION (  '', ( #110 ), #198 ) ;
#183 = DIRECTION ( 'NONE',  ( 0.0000000000000000000, 0.0000000000000000000, 1.000000000000000000 ) ) ;
#184 = DIRECTION ( 'NONE',  ( 0.0000000000000000000, 0.0000000000000000000, 1.000000000000000000 ) ) ;
#185 = PRESENTATION_STYLE_ASSIGNMENT (( #283 ) ) ;
#186 = DIRECTION ( 'NONE',  ( -1.000000000000000000, -0.0000000000000000000, -0.0000000000000000000 ) ) ;
#187 = AXIS2_PLACEMENT_3D ( 'NONE', #119, #144, #275 ) ;
#188 = DIRECTION ( 'NONE',  ( 1.000000000000000000, 0.0000000000000000000, 0.0000000000000000000 ) ) ;
#189 = UNCERTAINTY_MEASURE_WITH_UNIT (LENGTH_MEASURE( 1.000000000000000100E-005 ), #133, 'distance_accuracy_value', 'NONE');
#190 = CIRCLE ( 'NONE', #220, 47.29499999999998700 ) ;
#191 = ORIENTED_EDGE ( 'NONE', *, *, #79, .F. ) ;
#192 = ADVANCED_FACE ( 'NONE', ( #42 ), #250, .F. ) ;
#193 = EDGE_CURVE ( 'NONE', #91, #226, #180, .T. ) ;
#194 = CARTESIAN_POINT ( 'NONE',  ( 272.9422565774712000, 2.449293598294707300E-015, -20.00000000000000700 ) ) ;
#195 = CIRCLE ( 'NONE', #169, 20.00000000000000400 ) ;
#196 = DIRECTION ( 'NONE',  ( 0.0000000000000000000, 1.000000000000000000, 0.0000000000000000000 ) ) ;
#197 = CARTESIAN_POINT ( 'NONE',  ( 230.0841532013300500, 0.0000000000000000000, 7.363275505057532400E-015 ) ) ;
#198 =( GEOMETRIC_REPRESENTATION_CONTEXT ( 3 ) GLOBAL_UNCERTAINTY_ASSIGNED_CONTEXT ( ( #12 ) ) GLOBAL_UNIT_ASSIGNED_CONTEXT ( ( #83, #263, #105 ) ) REPRESENTATION_CONTEXT ( 'NONE', 'WORKASPACE' ) );
#199 = DIRECTION ( 'NONE',  ( 0.0000000000000000000, 0.0000000000000000000, -1.000000000000000000 ) ) ;
#200 = ORIENTED_EDGE ( 'NONE', *, *, #210, .T. ) ;
#201 = CARTESIAN_POINT ( 'NONE',  ( 230.0841532013300500, 0.0000000000000000000, 7.363275505057532400E-015 ) ) ;
#202 = EDGE_CURVE ( 'NONE', #162, #74, #323, .T. ) ;
#203 = DIRECTION ( 'NONE',  ( 0.0000000000000000000, 0.0000000000000000000, 1.000000000000000000 ) ) ;
#204 = AXIS2_PLACEMENT_3D ( 'NONE', #281, #309, #150 ) ;
#205 = CARTESIAN_POINT ( 'NONE',  ( -0.5519199926577972300, 0.0000000000000000000, 0.0000000000000000000 ) ) ;
#206 = DIRECTION ( 'NONE',  ( 0.0000000000000000000, 0.0000000000000000000, 1.000000000000000000 ) ) ;
#207 = EDGE_LOOP ( 'NONE', ( #251, #127, #238 ) ) ;
#208 = CARTESIAN_POINT ( 'NONE',  ( 124.5233095260452400, 0.0000000000000000000, 0.0000000000000000000 ) ) ;
#209 = COLOUR_RGB ( '',1.000000000000000000, 1.000000000000000000, 1.000000000000000000 ) ;
#210 = EDGE_CURVE ( 'NONE', #104, #24, #311, .T. ) ;
#211 = FILL_AREA_STYLE ('',( #261 ) ) ;
#212 = FACE_OUTER_BOUND ( 'NONE', #213, .T. ) ;
#213 = EDGE_LOOP ( 'NONE', ( #156, #168, #89 ) ) ;
#214 = APPLICATION_CONTEXT ( 'automotive_design' ) ;
#215 = ADVANCED_FACE ( 'NONE', ( #242 ), #101, .T. ) ;
#216 =( GEOMETRIC_REPRESENTATION_CONTEXT ( 3 ) GLOBAL_UNCERTAINTY_ASSIGNED_CONTEXT ( ( #189 ) ) GLOBAL_UNIT_ASSIGNED_CONTEXT ( ( #133, #161, #347 ) ) REPRESENTATION_CONTEXT ( 'NONE', 'WORKASPACE' ) );
#217 = ORIENTED_EDGE ( 'NONE', *, *, #244, .F. ) ;
#218 = DIRECTION ( 'NONE',  ( -1.000000000000000000, -0.0000000000000000000, -0.0000000000000000000 ) ) ;
#219 = EDGE_LOOP ( 'NONE', ( #227, #340, #146, #120 ) ) ;
#220 = AXIS2_PLACEMENT_3D ( 'NONE', #147, #306, #280 ) ;
#221 = FACE_OUTER_BOUND ( 'NONE', #14, .T. ) ;
#222 = DIRECTION ( 'NONE',  ( 0.0000000000000000000, 0.0000000000000000000, -1.000000000000000000 ) ) ;
#223 = EDGE_LOOP ( 'NONE', ( #191, #28, #52 ) ) ;
#224 = CARTESIAN_POINT ( 'NONE',  ( 230.0841532013300500, 0.0000000000000000000, 7.363275505057532400E-015 ) ) ;
#225 = EDGE_CURVE ( 'NONE', #6, #24, #34, .T. ) ;
#226 = VERTEX_POINT ( 'NONE', #327 ) ;
#227 = ORIENTED_EDGE ( 'NONE', *, *, #322, .T. ) ;
#228 = PRODUCT ( '145073', '145073', '', ( #31 ) ) ;
#229 = CARTESIAN_POINT ( 'NONE',  ( 332.5601532013300200, 0.0000000000000000000, 6.838216917541233200E-015 ) ) ;
#230 =( NAMED_UNIT ( * ) PLANE_ANGLE_UNIT ( ) SI_UNIT ( $, .RADIAN. ) );
#231 = FACE_OUTER_BOUND ( 'NONE', #312, .T. ) ;
#232 = EDGE_LOOP ( 'NONE', ( #80, #19, #243 ) ) ;
#233 = CARTESIAN_POINT ( 'NONE',  ( 272.9422565774712000, 0.0000000000000000000, 20.00000000000000700 ) ) ;
#234 = COLOUR_RGB ( '',1.000000000000000000, 1.000000000000000000, 1.000000000000000000 ) ;
#235 = DIRECTION ( 'NONE',  ( 0.0000000000000000000, 0.0000000000000000000, 1.000000000000000000 ) ) ;
#236 = DIRECTION ( 'NONE',  ( -1.000000000000000000, -0.0000000000000000000, -0.0000000000000000000 ) ) ;
#237 = SURFACE_STYLE_USAGE ( .BOTH. , #59 ) ;
#238 = ORIENTED_EDGE ( 'NONE', *, *, #154, .F. ) ;
#239 = FILL_AREA_STYLE ('',( #290 ) ) ;
#240 = AXIS2_PLACEMENT_3D ( 'NONE', #299, #175, #199 ) ;
#241 = ADVANCED_FACE ( 'NONE', ( #231 ), #173, .T. ) ;
#242 = FACE_OUTER_BOUND ( 'NONE', #35, .T. ) ;
#243 = ORIENTED_EDGE ( 'NONE', *, *, #225, .T. ) ;
#244 = EDGE_CURVE ( 'NONE', #226, #24, #166, .T. ) ;
#245 = PRESENTATION_STYLE_ASSIGNMENT (( #237 ) ) ;
#246 = COLOUR_RGB ( '',1.000000000000000000, 1.000000000000000000, 1.000000000000000000 ) ;
#247 = EDGE_CURVE ( 'NONE', #44, #226, #300, .T. ) ;
#248 = FILL_AREA_STYLE ('',( #141 ) ) ;
#249 = DIRECTION ( 'NONE',  ( 0.0000000000000000000, 0.0000000000000000000, 1.000000000000000000 ) ) ;
#250 = SPHERICAL_SURFACE ( 'NONE', #274, 47.29499999999998700 ) ;
#251 = ORIENTED_EDGE ( 'NONE', *, *, #193, .F. ) ;
#252 = STYLED_ITEM ( 'NONE', ( #326 ), #112 ) ;
#253 = CARTESIAN_POINT ( 'NONE',  ( 230.0841532013300500, 0.0000000000000000000, 7.363275505057532400E-015 ) ) ;
#254 = SURFACE_STYLE_FILL_AREA ( #248 ) ;
#255 = DIRECTION ( 'NONE',  ( 0.0000000000000000000, 0.0000000000000000000, 1.000000000000000000 ) ) ;
#256 = CARTESIAN_POINT ( 'NONE',  ( 272.9422565774712000, 0.0000000000000000000, 20.00000000000000400 ) ) ;
#257 = AXIS2_PLACEMENT_3D ( 'NONE', #329, #336, #149 ) ;
#258 = LINE ( 'NONE', #18, #111 ) ;
#259 = ORIENTED_EDGE ( 'NONE', *, *, #225, .F. ) ;
#260 = EDGE_CURVE ( 'NONE', #302, #74, #94, .T. ) ;
#261 = FILL_AREA_STYLE_COLOUR ( '', #234 ) ;
#262 = AXIS2_PLACEMENT_3D ( 'NONE', #115, #298, #90 ) ;
#263 =( NAMED_UNIT ( * ) PLANE_ANGLE_UNIT ( ) SI_UNIT ( $, .RADIAN. ) );
#264 = SURFACE_STYLE_USAGE ( .BOTH. , #86 ) ;
#265 = FACE_OUTER_BOUND ( 'NONE', #9, .T. ) ;
#266 = ADVANCED_FACE ( 'NONE', ( #221 ), #286, .T. ) ;
#267 = EDGE_CURVE ( 'NONE', #104, #6, #116, .T. ) ;
#268 = PRESENTATION_LAYER_ASSIGNMENT (  '', '', ( #252 ) ) ;
#269 = ORIENTED_EDGE ( 'NONE', *, *, #17, .T. ) ;
#270 = CARTESIAN_POINT ( 'NONE',  ( 143.3131532013300700, 0.0000000000000000000, 0.0000000000000000000 ) ) ;
#271 = DIRECTION ( 'NONE',  ( 0.0000000000000000000, 0.0000000000000000000, 1.000000000000000000 ) ) ;
#272 = CIRCLE ( 'NONE', #49, 47.29499999999998700 ) ;
#273 = CARTESIAN_POINT ( 'NONE',  ( 268.0391532013300700, 0.0000000000000000000, 2.887445111151916100E-015 ) ) ;
#274 = AXIS2_PLACEMENT_3D ( 'NONE', #201, #48, #75 ) ;
#275 = DIRECTION ( 'NONE',  ( 0.0000000000000000000, 0.0000000000000000000, 1.000000000000000000 ) ) ;
#276 = VECTOR ( 'NONE', #316, 1000.000000000000000 ) ;
#277 = DIRECTION ( 'NONE',  ( 0.0000000000000000000, 1.224646799147353200E-016, -1.000000000000000000 ) ) ;
#278 = DIRECTION ( 'NONE',  ( 0.0000000000000000000, 0.0000000000000000000, 1.000000000000000000 ) ) ;
#279 = ORIENTED_EDGE ( 'NONE', *, *, #267, .F. ) ;
#280 = DIRECTION ( 'NONE',  ( 0.0000000000000000000, -1.224646799147353200E-016, 1.000000000000000000 ) ) ;
#281 = CARTESIAN_POINT ( 'NONE',  ( 278.4067220934131200, 0.0000000000000000000, 0.0000000000000000000 ) ) ;
#282 = AXIS2_PLACEMENT_3D ( 'NONE', #229, #50, #203 ) ;
#283 = SURFACE_STYLE_USAGE ( .BOTH. , #179 ) ;
#284 = CIRCLE ( 'NONE', #84, 136.5659999999999700 ) ;
#285 = ORIENTED_EDGE ( 'NONE', *, *, #334, .F. ) ;
#286 = SPHERICAL_SURFACE ( 'NONE', #78, 47.29499999999998700 ) ;
#287 = CARTESIAN_POINT ( 'NONE',  ( 230.0841532013300500, 0.0000000000000000000, 7.363275505057532400E-015 ) ) ;
#288 = MECHANICAL_DESIGN_GEOMETRIC_PRESENTATION_REPRESENTATION (  '', ( #252 ), #303 ) ;
#289 = ORIENTED_EDGE ( 'NONE', *, *, #177, .F. ) ;
#290 = FILL_AREA_STYLE_COLOUR ( '', #209 ) ;
#291 = ORIENTED_EDGE ( 'NONE', *, *, #202, .F. ) ;
#292 =( NAMED_UNIT ( * ) PLANE_ANGLE_UNIT ( ) SI_UNIT ( $, .RADIAN. ) );
#293 = AXIS2_PLACEMENT_3D ( 'NONE', #46, #15, #271 ) ;
#294 = ORIENTED_EDGE ( 'NONE', *, *, #314, .T. ) ;
#295 = AXIS2_PLACEMENT_3D ( 'NONE', #205, #20, #255 ) ;
#296 = ORIENTED_EDGE ( 'NONE', *, *, #159, .F. ) ;
#297 = ORIENTED_EDGE ( 'NONE', *, *, #17, .F. ) ;
#298 = DIRECTION ( 'NONE',  ( -1.000000000000000000, -0.0000000000000000000, -0.0000000000000000000 ) ) ;
#299 = CARTESIAN_POINT ( 'NONE',  ( 143.3131532013300700, 0.0000000000000000000, 0.0000000000000000000 ) ) ;
#300 = CIRCLE ( 'NONE', #21, 19.99999999999998900 ) ;
#301 = CARTESIAN_POINT ( 'NONE',  ( 332.5601532013300200, 0.0000000000000000000, 6.838216917541233200E-015 ) ) ;
#302 = VERTEX_POINT ( 'NONE', #233 ) ;
#303 =( GEOMETRIC_REPRESENTATION_CONTEXT ( 3 ) GLOBAL_UNCERTAINTY_ASSIGNED_CONTEXT ( ( #304 ) ) GLOBAL_UNIT_ASSIGNED_CONTEXT ( ( #107, #292, #135 ) ) REPRESENTATION_CONTEXT ( 'NONE', 'WORKASPACE' ) );
#304 = UNCERTAINTY_MEASURE_WITH_UNIT (LENGTH_MEASURE( 1.000000000000000100E-005 ), #107, 'distance_accuracy_value', 'NONE');
#305 = DIRECTION ( 'NONE',  ( -1.000000000000000000, -0.0000000000000000000, -0.0000000000000000000 ) ) ;
#306 = DIRECTION ( 'NONE',  ( -0.0000000000000000000, 1.000000000000000000, 1.224646799147353200E-016 ) ) ;
#307 = ORIENTED_EDGE ( 'NONE', *, *, #314, .F. ) ;
#308 = FACE_OUTER_BOUND ( 'NONE', #174, .T. ) ;
#309 = DIRECTION ( 'NONE',  ( -1.000000000000000000, -0.0000000000000000000, -0.0000000000000000000 ) ) ;
#310 = AXIS2_PLACEMENT_3D ( 'NONE', #224, #16, #123 ) ;
#311 = CIRCLE ( 'NONE', #310, 47.29499999999998700 ) ;
#312 = EDGE_LOOP ( 'NONE', ( #296, #68, #285 ) ) ;
#313 = DIRECTION ( 'NONE',  ( -1.000000000000000000, -0.0000000000000000000, -0.0000000000000000000 ) ) ;
#314 = EDGE_CURVE ( 'NONE', #44, #6, #106, .T. ) ;
#315 = SHAPE_DEFINITION_REPRESENTATION ( #40, #112 ) ;
#316 = DIRECTION ( 'NONE',  ( -1.000000000000000000, -0.0000000000000000000, -0.0000000000000000000 ) ) ;
#317 = CARTESIAN_POINT ( 'NONE',  ( 230.0841532013300500, 0.0000000000000000000, 7.363275505057532400E-015 ) ) ;
#318 = CIRCLE ( 'NONE', #282, 64.52099999999997200 ) ;
#319 = SURFACE_STYLE_FILL_AREA ( #239 ) ;
#320 = STYLED_ITEM ( 'NONE', ( #185 ), #4 ) ;
#321 = CYLINDRICAL_SURFACE ( 'NONE', #143, 20.00000000000000400 ) ;
#322 = EDGE_CURVE ( 'NONE', #302, #151, #335, .T. ) ;
#323 = CIRCLE ( 'NONE', #293, 20.00000000000000400 ) ;
#324 = ADVANCED_FACE ( 'NONE', ( #148 ), #321, .T. ) ;
#325 = ORIENTED_EDGE ( 'NONE', *, *, #244, .T. ) ;
#326 = PRESENTATION_STYLE_ASSIGNMENT (( #264 ) ) ;
#327 = CARTESIAN_POINT ( 'NONE',  ( 278.4067220934131200, 0.0000000000000000000, 19.99999999999998900 ) ) ;
#328 = CARTESIAN_POINT ( 'NONE',  ( 271.2171875002816800, 0.0000000000000000000, 0.0000000000000000000 ) ) ;
#329 = CARTESIAN_POINT ( 'NONE',  ( 143.3131532013300700, 0.0000000000000000000, 0.0000000000000000000 ) ) ;
#330 = AXIS2_PLACEMENT_3D ( 'NONE', #155, #342, #183 ) ;
#331 = CYLINDRICAL_SURFACE ( 'NONE', #187, 20.00000000000000400 ) ;
#332 = ORIENTED_EDGE ( 'NONE', *, *, #322, .F. ) ;
#333 = CARTESIAN_POINT ( 'NONE',  ( 277.3791532013300400, 0.0000000000000000000, 1.025925902334123400E-014 ) ) ;
#334 = EDGE_CURVE ( 'NONE', #151, #302, #108, .T. ) ;
#335 = CIRCLE ( 'NONE', #92, 20.00000000000000700 ) ;
#336 = DIRECTION ( 'NONE',  ( 0.0000000000000000000, 1.000000000000000000, 0.0000000000000000000 ) ) ;
#337 = PRESENTATION_LAYER_ASSIGNMENT (  '', '', ( #320 ) ) ;
#338 = CARTESIAN_POINT ( 'NONE',  ( 332.5601532013300200, 0.0000000000000000000, 6.838216917541233200E-015 ) ) ;
#339 = FACE_OUTER_BOUND ( 'NONE', #232, .T. ) ;
#340 = ORIENTED_EDGE ( 'NONE', *, *, #177, .T. ) ;
#341 = MANIFOLD_SOLID_BREP ( 'Ðý×ª1', #57 ) ;
#342 = DIRECTION ( 'NONE',  ( -1.000000000000000000, -0.0000000000000000000, -0.0000000000000000000 ) ) ;
#343 = DIRECTION ( 'NONE',  ( -1.000000000000000000, -0.0000000000000000000, -0.0000000000000000000 ) ) ;
#344 = ORIENTED_EDGE ( 'NONE', *, *, #159, .T. ) ;
#345 = DIRECTION ( 'NONE',  ( 0.0000000000000000000, -1.224646799147353200E-016, 1.000000000000000000 ) ) ;
#346 = CARTESIAN_POINT ( 'NONE',  ( 272.9422565774712000, 0.0000000000000000000, 0.0000000000000000000 ) ) ;
#347 =( NAMED_UNIT ( * ) SI_UNIT ( $, .STERADIAN. ) SOLID_ANGLE_UNIT ( ) );
ENDSEC;
END-ISO-10303-21;
