ISO-10303-21;
HEADER;
FILE_DESCRIPTION (( 'STEP AP214' ),
    '1' );
FILE_NAME ('145069.STEP',
    '2019-05-15T03:49:39',
    ( 'user' ),
    ( 'Î¢ÈíÖÐ¹ú' ),
    'SwSTEP 2.0',
    'SolidWorks 2016',
    '' );
FILE_SCHEMA (( 'AUTOMOTIVE_DESIGN' ));
ENDSEC;

DATA;
#1 = EDGE_CURVE ( 'NONE', #138, #160, #161, .T. ) ;
#2 = ORIENTED_EDGE ( 'NONE', *, *, #189, .F. ) ;
#3 = ORIENTED_EDGE ( 'NONE', *, *, #108, .T. ) ;
#4 = AXIS2_PLACEMENT_3D ( 'NONE', #183, #71, #5 ) ;
#5 = DIRECTION ( 'NONE',  ( 0.0000000000000000000, 0.0000000000000000000, 1.000000000000000000 ) ) ;
#6 = DIRECTION ( 'NONE',  ( -1.000000000000000000, -0.0000000000000000000, -0.0000000000000000000 ) ) ;
#7 = AXIS2_PLACEMENT_3D ( 'NONE', #140, #283, #281 ) ;
#8 = CARTESIAN_POINT ( 'NONE',  ( 258.9422281870270700, 0.0000000000000000000, 1.424894920509932900E-014 ) ) ;
#9 = ADVANCED_FACE ( 'NONE', ( #296 ), #241, .T. ) ;
#10 = CARTESIAN_POINT ( 'NONE',  ( 254.7206850722381500, 0.0000000000000000000, 15.75000000000000700 ) ) ;
#11 = APPLICATION_CONTEXT ( 'automotive_design' ) ;
#12 = VERTEX_POINT ( 'NONE', #8 ) ;
#13 = PRESENTATION_STYLE_ASSIGNMENT (( #334 ) ) ;
#14 = CARTESIAN_POINT ( 'NONE',  ( 351.9232281870270100, 0.0000000000000000000, -4.608059267687370200E-015 ) ) ;
#15 = DIRECTION ( 'NONE',  ( 0.0000000000000000000, 1.000000000000000000, 0.0000000000000000000 ) ) ;
#16 = DIRECTION ( 'NONE',  ( -1.000000000000000000, -0.0000000000000000000, -0.0000000000000000000 ) ) ;
#17 = VERTEX_POINT ( 'NONE', #179 ) ;
#18 = DIRECTION ( 'NONE',  ( 0.0000000000000000000, 0.0000000000000000000, 1.000000000000000000 ) ) ;
#19 = PRODUCT_DEFINITION_SHAPE ( 'NONE', 'NONE',  #313 ) ;
#20 = CARTESIAN_POINT ( 'NONE',  ( 254.7206850722381500, 1.928818708657081000E-015, -15.74999999999999600 ) ) ;
#21 = EDGE_CURVE ( 'NONE', #12, #31, #198, .T. ) ;
#22 = EDGE_LOOP ( 'NONE', ( #154, #298, #247 ) ) ;
#23 = EDGE_CURVE ( 'NONE', #138, #95, #39, .T. ) ;
#24 = ORIENTED_EDGE ( 'NONE', *, *, #335, .F. ) ;
#25 = CARTESIAN_POINT ( 'NONE',  ( -0.5519199926577972300, 1.928818708657081300E-015, -15.75000000000000000 ) ) ;
#26 = EDGE_CURVE ( 'NONE', #170, #31, #34, .T. ) ;
#27 = AXIS2_PLACEMENT_3D ( 'NONE', #38, #259, #42 ) ;
#28 = CARTESIAN_POINT ( 'NONE',  ( -0.5519199926577972300, 0.0000000000000000000, 0.0000000000000000000 ) ) ;
#29 = EDGE_CURVE ( 'NONE', #124, #219, #275, .T. ) ;
#30 = ORIENTED_EDGE ( 'NONE', *, *, #325, .F. ) ;
#31 = VERTEX_POINT ( 'NONE', #68 ) ;
#32 = DIRECTION ( 'NONE',  ( 0.0000000000000000000, 0.0000000000000000000, 1.000000000000000000 ) ) ;
#33 = EDGE_CURVE ( 'NONE', #31, #170, #58, .T. ) ;
#34 = CIRCLE ( 'NONE', #57, 15.74999999999996300 ) ;
#35 = AXIS2_PLACEMENT_3D ( 'NONE', #343, #174, #267 ) ;
#36 = DIRECTION ( 'NONE',  ( -0.0000000000000000000, 1.000000000000000000, 1.224646799147353200E-016 ) ) ;
#37 = ORIENTED_EDGE ( 'NONE', *, *, #325, .T. ) ;
#38 = CARTESIAN_POINT ( 'NONE',  ( 26.23922818702706300, 0.0000000000000000000, 0.0000000000000000000 ) ) ;
#39 = CIRCLE ( 'NONE', #250, 15.74999999999999600 ) ;
#40 = ADVANCED_FACE ( 'NONE', ( #311 ), #330, .F. ) ;
#41 = DIRECTION ( 'NONE',  ( 1.000000000000000000, 0.0000000000000000000, 0.0000000000000000000 ) ) ;
#42 = DIRECTION ( 'NONE',  ( 0.0000000000000000000, -1.224646799147353500E-016, 1.000000000000000000 ) ) ;
#43 = AXIS2_PLACEMENT_3D ( 'NONE', #117, #115, #255 ) ;
#44 = CARTESIAN_POINT ( 'NONE',  ( 124.5233095260452400, 0.0000000000000000000, 0.0000000000000000000 ) ) ;
#45 = PRESENTATION_LAYER_ASSIGNMENT (  '', '', ( #305 ) ) ;
#46 = AXIS2_PLACEMENT_3D ( 'NONE', #206, #289, #120 ) ;
#47 = CARTESIAN_POINT ( 'NONE',  ( 254.7206850722381500, 0.0000000000000000000, 0.0000000000000000000 ) ) ;
#48 = CARTESIAN_POINT ( 'NONE',  ( 180.9032281870270000, 0.0000000000000000000, 2.168404344971008900E-016 ) ) ;
#49 = ORIENTED_EDGE ( 'NONE', *, *, #54, .F. ) ;
#50 = CIRCLE ( 'NONE', #338, 100.3209999999999800 ) ;
#51 = DIRECTION ( 'NONE',  ( 0.0000000000000000000, 0.0000000000000000000, 1.000000000000000000 ) ) ;
#52 = DIRECTION ( 'NONE',  ( 0.0000000000000000000, -1.224646799147353200E-016, 1.000000000000000000 ) ) ;
#53 = CARTESIAN_POINT ( 'NONE',  ( 256.3822281870270700, 0.0000000000000000000, 4.838596222139258300E-015 ) ) ;
#54 = EDGE_CURVE ( 'NONE', #265, #219, #266, .T. ) ;
#55 = VECTOR ( 'NONE', #128, 1000.000000000000000 ) ;
#56 = CARTESIAN_POINT ( 'NONE',  ( 251.6022281870269800, 0.0000000000000000000, 1.534830309175709100E-015 ) ) ;
#57 = AXIS2_PLACEMENT_3D ( 'NONE', #92, #229, #66 ) ;
#58 = CIRCLE ( 'NONE', #121, 15.74999999999996300 ) ;
#59 = AXIS2_PLACEMENT_3D ( 'NONE', #144, #15, #342 ) ;
#60 = CIRCLE ( 'NONE', #118, 15.75000000000004300 ) ;
#61 = DIRECTION ( 'NONE',  ( 0.0000000000000000000, 1.000000000000000000, 0.0000000000000000000 ) ) ;
#62 = ORIENTED_EDGE ( 'NONE', *, *, #29, .T. ) ;
#63 = VECTOR ( 'NONE', #315, 1000.000000000000000 ) ;
#64 = ADVANCED_FACE ( 'NONE', ( #190 ), #119, .T. ) ;
#65 = CARTESIAN_POINT ( 'NONE',  ( 0.0000000000000000000, 0.0000000000000000000, 0.0000000000000000000 ) ) ;
#66 = DIRECTION ( 'NONE',  ( 0.0000000000000000000, 0.0000000000000000000, 1.000000000000000000 ) ) ;
#67 = ORIENTED_EDGE ( 'NONE', *, *, #137, .F. ) ;
#68 = CARTESIAN_POINT ( 'NONE',  ( 258.4086140004886800, 1.928818708657079000E-015, -15.74999999999996300 ) ) ;
#69 = FACE_OUTER_BOUND ( 'NONE', #224, .T. ) ;
#70 = CARTESIAN_POINT ( 'NONE',  ( 254.7206850722381500, 1.928818708657082500E-015, -15.75000000000000700 ) ) ;
#71 = DIRECTION ( 'NONE',  ( 0.0000000000000000000, 1.000000000000000000, 0.0000000000000000000 ) ) ;
#72 = CLOSED_SHELL ( 'NONE', ( #175, #282, #85, #40, #331, #64 ) ) ;
#73 = EDGE_LOOP ( 'NONE', ( #336, #87, #99 ) ) ;
#74 = AXIS2_PLACEMENT_3D ( 'NONE', #287, #109, #52 ) ;
#75 = DIRECTION ( 'NONE',  ( -1.000000000000000000, -0.0000000000000000000, -0.0000000000000000000 ) ) ;
#76 = EDGE_LOOP ( 'NONE', ( #49, #215, #62 ) ) ;
#77 = SURFACE_STYLE_FILL_AREA ( #114 ) ;
#78 = UNCERTAINTY_MEASURE_WITH_UNIT (LENGTH_MEASURE( 1.000000000000000100E-005 ), #186, 'distance_accuracy_value', 'NONE');
#79 = PRODUCT_DEFINITION_FORMATION_WITH_SPECIFIED_SOURCE ( 'ÈÎºÎ', '', #157, .NOT_KNOWN. ) ;
#80 = DIRECTION ( 'NONE',  ( -1.000000000000000000, -0.0000000000000000000, -0.0000000000000000000 ) ) ;
#81 = CARTESIAN_POINT ( 'NONE',  ( 351.9232281870270100, 0.0000000000000000000, -4.608059267687370200E-015 ) ) ;
#82 = AXIS2_PLACEMENT_3D ( 'NONE', #263, #276, #173 ) ;
#83 = EDGE_LOOP ( 'NONE', ( #290, #37, #147, #143 ) ) ;
#84 = CARTESIAN_POINT ( 'NONE',  ( 258.4086140004886800, 0.0000000000000000000, 0.0000000000000000000 ) ) ;
#85 = ADVANCED_FACE ( 'NONE', ( #340 ), #326, .F. ) ;
#86 = ORIENTED_EDGE ( 'NONE', *, *, #112, .F. ) ;
#87 = ORIENTED_EDGE ( 'NONE', *, *, #112, .T. ) ;
#88 = LINE ( 'NONE', #25, #166 ) ;
#89 =( NAMED_UNIT ( * ) SI_UNIT ( $, .STERADIAN. ) SOLID_ANGLE_UNIT ( ) );
#90 = DIRECTION ( 'NONE',  ( 0.0000000000000000000, 0.0000000000000000000, 1.000000000000000000 ) ) ;
#91 = CARTESIAN_POINT ( 'NONE',  ( 124.5233095260452400, 0.0000000000000000000, 15.74999999999999600 ) ) ;
#92 = CARTESIAN_POINT ( 'NONE',  ( 258.4086140004886800, 0.0000000000000000000, 0.0000000000000000000 ) ) ;
#93 = AXIS2_PLACEMENT_3D ( 'NONE', #207, #260, #94 ) ;
#94 = DIRECTION ( 'NONE',  ( 0.0000000000000000000, 0.0000000000000000000, 1.000000000000000000 ) ) ;
#95 = VERTEX_POINT ( 'NONE', #184 ) ;
#96 = CIRCLE ( 'NONE', #245, 15.74999999999999600 ) ;
#97 = ORIENTED_EDGE ( 'NONE', *, *, #54, .T. ) ;
#98 = DIRECTION ( 'NONE',  ( -1.000000000000000000, -0.0000000000000000000, -0.0000000000000000000 ) ) ;
#99 = ORIENTED_EDGE ( 'NONE', *, *, #108, .F. ) ;
#100 = COLOUR_RGB ( '',1.000000000000000000, 1.000000000000000000, 1.000000000000000000 ) ;
#101 =( NAMED_UNIT ( * ) PLANE_ANGLE_UNIT ( ) SI_UNIT ( $, .RADIAN. ) );
#102 =( GEOMETRIC_REPRESENTATION_CONTEXT ( 3 ) GLOBAL_UNCERTAINTY_ASSIGNED_CONTEXT ( ( #223 ) ) GLOBAL_UNIT_ASSIGNED_CONTEXT ( ( #319, #101, #232 ) ) REPRESENTATION_CONTEXT ( 'NONE', 'WORKASPACE' ) );
#103 = ORIENTED_EDGE ( 'NONE', *, *, #189, .T. ) ;
#104 = STYLED_ITEM ( 'NONE', ( #13 ), #150 ) ;
#105 = DIRECTION ( 'NONE',  ( -1.000000000000000000, -0.0000000000000000000, -0.0000000000000000000 ) ) ;
#106 = ORIENTED_EDGE ( 'NONE', *, *, #172, .F. ) ;
#107 = SPHERICAL_SURFACE ( 'NONE', #43, 75.47900000000005600 ) ;
#108 = EDGE_CURVE ( 'NONE', #17, #227, #185, .T. ) ;
#109 = DIRECTION ( 'NONE',  ( -0.0000000000000000000, 1.000000000000000000, 1.224646799147353200E-016 ) ) ;
#110 = AXIS2_PLACEMENT_3D ( 'NONE', #213, #6, #243 ) ;
#111 = DIRECTION ( 'NONE',  ( -1.000000000000000000, -0.0000000000000000000, -0.0000000000000000000 ) ) ;
#112 = EDGE_CURVE ( 'NONE', #160, #227, #50, .T. ) ;
#113 = COLOUR_RGB ( '',1.000000000000000000, 1.000000000000000000, 1.000000000000000000 ) ;
#114 = FILL_AREA_STYLE ('',( #233 ) ) ;
#115 = DIRECTION ( 'NONE',  ( 0.0000000000000000000, 1.000000000000000000, 0.0000000000000000000 ) ) ;
#116 = ADVANCED_FACE ( 'NONE', ( #258 ), #317, .T. ) ;
#117 = CARTESIAN_POINT ( 'NONE',  ( 180.9032281870270000, 0.0000000000000000000, 2.168404344971008900E-016 ) ) ;
#118 = AXIS2_PLACEMENT_3D ( 'NONE', #47, #293, #209 ) ;
#119 = SPHERICAL_SURFACE ( 'NONE', #93, 232.7030000000000000 ) ;
#120 = DIRECTION ( 'NONE',  ( 0.0000000000000000000, 0.0000000000000000000, -1.000000000000000000 ) ) ;
#121 = AXIS2_PLACEMENT_3D ( 'NONE', #84, #16, #225 ) ;
#122 =( LENGTH_UNIT ( ) NAMED_UNIT ( * ) SI_UNIT ( .MILLI., .METRE. ) );
#123 = AXIS2_PLACEMENT_3D ( 'NONE', #285, #321, #134 ) ;
#124 = VERTEX_POINT ( 'NONE', #10 ) ;
#125 = CARTESIAN_POINT ( 'NONE',  ( 180.9032281870270000, 0.0000000000000000000, 2.168404344971008900E-016 ) ) ;
#126 =( NAMED_UNIT ( * ) PLANE_ANGLE_UNIT ( ) SI_UNIT ( $, .RADIAN. ) );
#127 = AXIS2_PLACEMENT_3D ( 'NONE', #203, #111, #195 ) ;
#128 = DIRECTION ( 'NONE',  ( -1.000000000000000000, -0.0000000000000000000, -0.0000000000000000000 ) ) ;
#129 = ORIENTED_EDGE ( 'NONE', *, *, #217, .T. ) ;
#130 = SPHERICAL_SURFACE ( 'NONE', #324, 100.3209999999999800 ) ;
#131 = CLOSED_SHELL ( 'NONE', ( #145, #199, #9, #308, #226, #116 ) ) ;
#132 = SURFACE_STYLE_USAGE ( .BOTH. , #292 ) ;
#133 = FILL_AREA_STYLE_COLOUR ( '', #236 ) ;
#134 = DIRECTION ( 'NONE',  ( 0.0000000000000000000, 0.0000000000000000000, -1.000000000000000000 ) ) ;
#135 = ORIENTED_EDGE ( 'NONE', *, *, #217, .F. ) ;
#136 = CYLINDRICAL_SURFACE ( 'NONE', #222, 15.74999999999999600 ) ;
#137 = EDGE_CURVE ( 'NONE', #95, #138, #253, .T. ) ;
#138 = VERTEX_POINT ( 'NONE', #20 ) ;
#139 = CIRCLE ( 'NONE', #204, 15.74999999999999600 ) ;
#140 = CARTESIAN_POINT ( 'NONE',  ( 26.23922818702706300, 0.0000000000000000000, 0.0000000000000000000 ) ) ;
#141 = EDGE_LOOP ( 'NONE', ( #135, #103, #310 ) ) ;
#142 = FACE_OUTER_BOUND ( 'NONE', #295, .T. ) ;
#143 = ORIENTED_EDGE ( 'NONE', *, *, #187, .F. ) ;
#144 = CARTESIAN_POINT ( 'NONE',  ( 180.9032281870270000, 0.0000000000000000000, 2.168404344971008900E-016 ) ) ;
#145 = ADVANCED_FACE ( 'NONE', ( #301 ), #107, .T. ) ;
#146 = FILL_AREA_STYLE_COLOUR ( '', #113 ) ;
#147 = ORIENTED_EDGE ( 'NONE', *, *, #29, .F. ) ;
#148 = SURFACE_SIDE_STYLE ('',( #318 ) ) ;
#149 =( LENGTH_UNIT ( ) NAMED_UNIT ( * ) SI_UNIT ( .MILLI., .METRE. ) );
#150 = MANIFOLD_SOLID_BREP ( 'Ðý×ª1', #131 ) ;
#151 = CYLINDRICAL_SURFACE ( 'NONE', #280, 15.75000000000000000 ) ;
#152 = MECHANICAL_DESIGN_GEOMETRIC_PRESENTATION_REPRESENTATION (  '', ( #104 ), #268 ) ;
#153 = ORIENTED_EDGE ( 'NONE', *, *, #33, .T. ) ;
#154 = ORIENTED_EDGE ( 'NONE', *, *, #21, .F. ) ;
#155 = CIRCLE ( 'NONE', #344, 75.47900000000004200 ) ;
#156 = DIRECTION ( 'NONE',  ( 0.0000000000000000000, 1.000000000000000000, 0.0000000000000000000 ) ) ;
#157 = PRODUCT ( '145069', '145069', '', ( #200 ) ) ;
#158 = DIRECTION ( 'NONE',  ( 0.0000000000000000000, 0.0000000000000000000, -1.000000000000000000 ) ) ;
#159 =( NAMED_UNIT ( * ) SI_UNIT ( $, .STERADIAN. ) SOLID_ANGLE_UNIT ( ) );
#160 = VERTEX_POINT ( 'NONE', #337 ) ;
#161 = LINE ( 'NONE', #238, #63 ) ;
#162 = CARTESIAN_POINT ( 'NONE',  ( 252.8462856574959400, 0.0000000000000000000, 0.0000000000000000000 ) ) ;
#163 = EDGE_LOOP ( 'NONE', ( #164, #97, #235 ) ) ;
#164 = ORIENTED_EDGE ( 'NONE', *, *, #286, .F. ) ;
#165 = ORIENTED_EDGE ( 'NONE', *, *, #270, .T. ) ;
#166 = VECTOR ( 'NONE', #80, 1000.000000000000000 ) ;
#167 = ORIENTED_EDGE ( 'NONE', *, *, #193, .F. ) ;
#168 = CIRCLE ( 'NONE', #74, 75.47900000000005600 ) ;
#169 = DIRECTION ( 'NONE',  ( -1.000000000000000000, -0.0000000000000000000, -0.0000000000000000000 ) ) ;
#170 = VERTEX_POINT ( 'NONE', #294 ) ;
#171 = DIRECTION ( 'NONE',  ( 0.0000000000000000000, -1.224646799147353200E-016, 1.000000000000000000 ) ) ;
#172 = EDGE_CURVE ( 'NONE', #95, #17, #216, .T. ) ;
#173 = DIRECTION ( 'NONE',  ( 0.0000000000000000000, 0.0000000000000000000, -1.000000000000000000 ) ) ;
#174 = DIRECTION ( 'NONE',  ( -1.000000000000000000, -0.0000000000000000000, -0.0000000000000000000 ) ) ;
#175 = ADVANCED_FACE ( 'NONE', ( #220 ), #277, .T. ) ;
#176 = ORIENTED_EDGE ( 'NONE', *, *, #26, .F. ) ;
#177 = APPLICATION_PROTOCOL_DEFINITION ( 'draft international standard', 'automotive_design', 1998, #11 ) ;
#178 = APPLICATION_CONTEXT ( 'automotive_design' ) ;
#179 = CARTESIAN_POINT ( 'NONE',  ( 252.8462856574959400, 0.0000000000000000000, 15.75000000000000000 ) ) ;
#180 = SURFACE_STYLE_FILL_AREA ( #181 ) ;
#181 = FILL_AREA_STYLE ('',( #146 ) ) ;
#182 = MECHANICAL_DESIGN_GEOMETRIC_PRESENTATION_REPRESENTATION (  '', ( #303 ), #345 ) ;
#183 = CARTESIAN_POINT ( 'NONE',  ( 180.9032281870270000, 0.0000000000000000000, 2.168404344971008900E-016 ) ) ;
#184 = CARTESIAN_POINT ( 'NONE',  ( 254.7206850722381500, 0.0000000000000000000, 15.74999999999999600 ) ) ;
#185 = CIRCLE ( 'NONE', #46, 100.3209999999999800 ) ;
#186 =( LENGTH_UNIT ( ) NAMED_UNIT ( * ) SI_UNIT ( .MILLI., .METRE. ) );
#187 = EDGE_CURVE ( 'NONE', #170, #124, #231, .T. ) ;
#188 = ORIENTED_EDGE ( 'NONE', *, *, #1, .T. ) ;
#189 = EDGE_CURVE ( 'NONE', #329, #95, #274, .T. ) ;
#190 = FACE_OUTER_BOUND ( 'NONE', #22, .T. ) ;
#191 = VECTOR ( 'NONE', #201, 1000.000000000000000 ) ;
#192 = DIRECTION ( 'NONE',  ( -0.0000000000000000000, 1.000000000000000000, 1.224646799147353200E-016 ) ) ;
#193 = EDGE_CURVE ( 'NONE', #219, #124, #60, .T. ) ;
#194 = AXIS2_PLACEMENT_3D ( 'NONE', #288, #169, #90 ) ;
#195 = DIRECTION ( 'NONE',  ( 0.0000000000000000000, 0.0000000000000000000, 1.000000000000000000 ) ) ;
#196 = MANIFOLD_SOLID_BREP ( 'Ðý×ª3', #72 ) ;
#197 = ORIENTED_EDGE ( 'NONE', *, *, #172, .T. ) ;
#198 = CIRCLE ( 'NONE', #27, 232.7030000000000000 ) ;
#199 = ADVANCED_FACE ( 'NONE', ( #211 ), #221, .T. ) ;
#200 = PRODUCT_CONTEXT ( 'NONE', #178, 'mechanical' ) ;
#201 = DIRECTION ( 'NONE',  ( -1.000000000000000000, -0.0000000000000000000, -0.0000000000000000000 ) ) ;
#202 = APPLICATION_PROTOCOL_DEFINITION ( 'draft international standard', 'automotive_design', 1998, #178 ) ;
#203 = CARTESIAN_POINT ( 'NONE',  ( 254.7206850722381500, 0.0000000000000000000, 0.0000000000000000000 ) ) ;
#204 = AXIS2_PLACEMENT_3D ( 'NONE', #162, #75, #252 ) ;
#205 = FACE_OUTER_BOUND ( 'NONE', #291, .T. ) ;
#206 = CARTESIAN_POINT ( 'NONE',  ( 351.9232281870270100, 0.0000000000000000000, -4.608059267687370200E-015 ) ) ;
#207 = CARTESIAN_POINT ( 'NONE',  ( 26.23922818702706300, 0.0000000000000000000, 0.0000000000000000000 ) ) ;
#208 = DIRECTION ( 'NONE',  ( -1.000000000000000000, -0.0000000000000000000, -0.0000000000000000000 ) ) ;
#209 = DIRECTION ( 'NONE',  ( 0.0000000000000000000, 0.0000000000000000000, 1.000000000000000000 ) ) ;
#210 = ORIENTED_EDGE ( 'NONE', *, *, #23, .T. ) ;
#211 = FACE_OUTER_BOUND ( 'NONE', #240, .T. ) ;
#212 = AXIS2_PLACEMENT_3D ( 'NONE', #14, #156, #18 ) ;
#213 = CARTESIAN_POINT ( 'NONE',  ( -0.5519199926577972300, 0.0000000000000000000, 0.0000000000000000000 ) ) ;
#214 = UNCERTAINTY_MEASURE_WITH_UNIT (LENGTH_MEASURE( 1.000000000000000100E-005 ), #149, 'distance_accuracy_value', 'NONE');
#215 = ORIENTED_EDGE ( 'NONE', *, *, #286, .T. ) ;
#216 = LINE ( 'NONE', #91, #55 ) ;
#217 = EDGE_CURVE ( 'NONE', #329, #138, #168, .T. ) ;
#218 = ORIENTED_EDGE ( 'NONE', *, *, #137, .T. ) ;
#219 = VERTEX_POINT ( 'NONE', #70 ) ;
#220 = FACE_OUTER_BOUND ( 'NONE', #346, .T. ) ;
#221 = CYLINDRICAL_SURFACE ( 'NONE', #35, 15.74999999999999600 ) ;
#222 = AXIS2_PLACEMENT_3D ( 'NONE', #44, #262, #261 ) ;
#223 = UNCERTAINTY_MEASURE_WITH_UNIT (LENGTH_MEASURE( 1.000000000000000100E-005 ), #319, 'distance_accuracy_value', 'NONE');
#224 = EDGE_LOOP ( 'NONE', ( #86, #165, #3 ) ) ;
#225 = DIRECTION ( 'NONE',  ( 0.0000000000000000000, 0.0000000000000000000, 1.000000000000000000 ) ) ;
#226 = ADVANCED_FACE ( 'NONE', ( #205 ), #136, .T. ) ;
#227 = VERTEX_POINT ( 'NONE', #56 ) ;
#228 = DIRECTION ( 'NONE',  ( 0.0000000000000000000, 0.0000000000000000000, 1.000000000000000000 ) ) ;
#229 = DIRECTION ( 'NONE',  ( -1.000000000000000000, -0.0000000000000000000, -0.0000000000000000000 ) ) ;
#230 = PRESENTATION_LAYER_ASSIGNMENT (  '', '', ( #303 ) ) ;
#231 = LINE ( 'NONE', #256, #191 ) ;
#232 =( NAMED_UNIT ( * ) SI_UNIT ( $, .STERADIAN. ) SOLID_ANGLE_UNIT ( ) );
#233 = FILL_AREA_STYLE_COLOUR ( '', #100 ) ;
#234 =( GEOMETRIC_REPRESENTATION_CONTEXT ( 3 ) GLOBAL_UNCERTAINTY_ASSIGNED_CONTEXT ( ( #244 ) ) GLOBAL_UNIT_ASSIGNED_CONTEXT ( ( #122, #284, #89 ) ) REPRESENTATION_CONTEXT ( 'NONE', 'WORKASPACE' ) );
#235 = ORIENTED_EDGE ( 'NONE', *, *, #193, .T. ) ;
#236 = COLOUR_RGB ( '',1.000000000000000000, 1.000000000000000000, 1.000000000000000000 ) ;
#237 = CARTESIAN_POINT ( 'NONE',  ( 252.8462856574959400, 0.0000000000000000000, 0.0000000000000000000 ) ) ;
#238 = CARTESIAN_POINT ( 'NONE',  ( 124.5233095260452400, 1.928818708657081000E-015, -15.74999999999999600 ) ) ;
#239 =( NAMED_UNIT ( * ) SI_UNIT ( $, .STERADIAN. ) SOLID_ANGLE_UNIT ( ) );
#240 = EDGE_LOOP ( 'NONE', ( #218, #188, #316, #106 ) ) ;
#241 = SPHERICAL_SURFACE ( 'NONE', #212, 100.3209999999999800 ) ;
#242 = MECHANICAL_DESIGN_GEOMETRIC_PRESENTATION_REPRESENTATION (  '', ( #305 ), #234 ) ;
#243 = DIRECTION ( 'NONE',  ( 0.0000000000000000000, 0.0000000000000000000, 1.000000000000000000 ) ) ;
#244 = UNCERTAINTY_MEASURE_WITH_UNIT (LENGTH_MEASURE( 1.000000000000000100E-005 ), #122, 'distance_accuracy_value', 'NONE');
#245 = AXIS2_PLACEMENT_3D ( 'NONE', #237, #105, #273 ) ;
#246 = DIRECTION ( 'NONE',  ( 0.0000000000000000000, 0.0000000000000000000, 1.000000000000000000 ) ) ;
#247 = ORIENTED_EDGE ( 'NONE', *, *, #33, .F. ) ;
#248 = FACE_OUTER_BOUND ( 'NONE', #83, .T. ) ;
#249 = CARTESIAN_POINT ( 'NONE',  ( 256.3822281870270700, 0.0000000000000000000, 4.838596222139257500E-015 ) ) ;
#250 = AXIS2_PLACEMENT_3D ( 'NONE', #264, #98, #51 ) ;
#251 = PRODUCT_RELATED_PRODUCT_CATEGORY ( 'part', '', ( #157 ) ) ;
#252 = DIRECTION ( 'NONE',  ( 0.0000000000000000000, 0.0000000000000000000, 1.000000000000000000 ) ) ;
#253 = CIRCLE ( 'NONE', #194, 15.74999999999999600 ) ;
#254 = PRESENTATION_STYLE_ASSIGNMENT (( #132 ) ) ;
#255 = DIRECTION ( 'NONE',  ( 0.0000000000000000000, 0.0000000000000000000, 1.000000000000000000 ) ) ;
#256 = CARTESIAN_POINT ( 'NONE',  ( -0.5519199926577972300, 0.0000000000000000000, 15.75000000000000000 ) ) ;
#257 = DIRECTION ( 'NONE',  ( 0.0000000000000000000, 1.000000000000000000, 0.0000000000000000000 ) ) ;
#258 = FACE_OUTER_BOUND ( 'NONE', #141, .T. ) ;
#259 = DIRECTION ( 'NONE',  ( -0.0000000000000000000, 1.000000000000000000, 1.224646799147353200E-016 ) ) ;
#260 = DIRECTION ( 'NONE',  ( 0.0000000000000000000, 1.000000000000000000, 0.0000000000000000000 ) ) ;
#261 = DIRECTION ( 'NONE',  ( 0.0000000000000000000, 0.0000000000000000000, 1.000000000000000000 ) ) ;
#262 = DIRECTION ( 'NONE',  ( -1.000000000000000000, -0.0000000000000000000, -0.0000000000000000000 ) ) ;
#263 = CARTESIAN_POINT ( 'NONE',  ( 180.9032281870270000, 0.0000000000000000000, 2.168404344971008900E-016 ) ) ;
#264 = CARTESIAN_POINT ( 'NONE',  ( 254.7206850722381500, 0.0000000000000000000, 0.0000000000000000000 ) ) ;
#265 = VERTEX_POINT ( 'NONE', #249 ) ;
#266 = CIRCLE ( 'NONE', #302, 75.47900000000004200 ) ;
#267 = DIRECTION ( 'NONE',  ( 0.0000000000000000000, 0.0000000000000000000, 1.000000000000000000 ) ) ;
#268 =( GEOMETRIC_REPRESENTATION_CONTEXT ( 3 ) GLOBAL_UNCERTAINTY_ASSIGNED_CONTEXT ( ( #214 ) ) GLOBAL_UNIT_ASSIGNED_CONTEXT ( ( #149, #332, #239 ) ) REPRESENTATION_CONTEXT ( 'NONE', 'WORKASPACE' ) );
#269 = ORIENTED_EDGE ( 'NONE', *, *, #270, .F. ) ;
#270 = EDGE_CURVE ( 'NONE', #160, #17, #96, .T. ) ;
#271 = CARTESIAN_POINT ( 'NONE',  ( 351.9232281870270100, 0.0000000000000000000, -4.608059267687370200E-015 ) ) ;
#272 = EDGE_CURVE ( 'NONE', #17, #160, #139, .T. ) ;
#273 = DIRECTION ( 'NONE',  ( 0.0000000000000000000, 0.0000000000000000000, 1.000000000000000000 ) ) ;
#274 = CIRCLE ( 'NONE', #82, 75.47900000000005600 ) ;
#275 = CIRCLE ( 'NONE', #127, 15.75000000000004300 ) ;
#276 = DIRECTION ( 'NONE',  ( 0.0000000000000000000, -1.000000000000000000, 0.0000000000000000000 ) ) ;
#277 = SPHERICAL_SURFACE ( 'NONE', #7, 232.7030000000000000 ) ;
#278 = ORIENTED_EDGE ( 'NONE', *, *, #187, .T. ) ;
#279 = AXIS2_PLACEMENT_3D ( 'NONE', #65, #228, #41 ) ;
#280 = AXIS2_PLACEMENT_3D ( 'NONE', #28, #208, #32 ) ;
#281 = DIRECTION ( 'NONE',  ( 0.0000000000000000000, 0.0000000000000000000, 1.000000000000000000 ) ) ;
#282 = ADVANCED_FACE ( 'NONE', ( #248 ), #151, .T. ) ;
#283 = DIRECTION ( 'NONE',  ( 0.0000000000000000000, 1.000000000000000000, 0.0000000000000000000 ) ) ;
#284 =( NAMED_UNIT ( * ) PLANE_ANGLE_UNIT ( ) SI_UNIT ( $, .RADIAN. ) );
#285 = CARTESIAN_POINT ( 'NONE',  ( 26.23922818702706300, 0.0000000000000000000, 0.0000000000000000000 ) ) ;
#286 = EDGE_CURVE ( 'NONE', #265, #124, #155, .T. ) ;
#287 = CARTESIAN_POINT ( 'NONE',  ( 180.9032281870270000, 0.0000000000000000000, 2.168404344971008900E-016 ) ) ;
#288 = CARTESIAN_POINT ( 'NONE',  ( 254.7206850722381500, 0.0000000000000000000, 0.0000000000000000000 ) ) ;
#289 = DIRECTION ( 'NONE',  ( 0.0000000000000000000, -1.000000000000000000, 0.0000000000000000000 ) ) ;
#290 = ORIENTED_EDGE ( 'NONE', *, *, #26, .T. ) ;
#291 = EDGE_LOOP ( 'NONE', ( #300, #210, #197, #269 ) ) ;
#292 = SURFACE_SIDE_STYLE ('',( #180 ) ) ;
#293 = DIRECTION ( 'NONE',  ( -1.000000000000000000, -0.0000000000000000000, -0.0000000000000000000 ) ) ;
#294 = CARTESIAN_POINT ( 'NONE',  ( 258.4086140004886800, 0.0000000000000000000, 15.74999999999996300 ) ) ;
#295 = EDGE_LOOP ( 'NONE', ( #30, #153, #278, #167 ) ) ;
#296 = FACE_OUTER_BOUND ( 'NONE', #73, .T. ) ;
#297 = PRESENTATION_LAYER_ASSIGNMENT (  '', '', ( #104 ) ) ;
#298 = ORIENTED_EDGE ( 'NONE', *, *, #335, .T. ) ;
#299 = CARTESIAN_POINT ( 'NONE',  ( 180.9032281870270000, 0.0000000000000000000, 2.168404344971008900E-016 ) ) ;
#300 = ORIENTED_EDGE ( 'NONE', *, *, #1, .F. ) ;
#301 = FACE_OUTER_BOUND ( 'NONE', #339, .T. ) ;
#302 = AXIS2_PLACEMENT_3D ( 'NONE', #125, #36, #328 ) ;
#303 = STYLED_ITEM ( 'NONE', ( #254 ), #196 ) ;
#304 = SURFACE_SIDE_STYLE ('',( #77 ) ) ;
#305 = STYLED_ITEM ( 'NONE', ( #323 ), #307 ) ;
#306 = DIRECTION ( 'NONE',  ( 0.0000000000000000000, 0.0000000000000000000, 1.000000000000000000 ) ) ;
#307 = ADVANCED_BREP_SHAPE_REPRESENTATION ( '145069', ( #150, #196, #279 ), #102 ) ;
#308 = ADVANCED_FACE ( 'NONE', ( #69 ), #130, .T. ) ;
#309 = PRODUCT_DEFINITION_CONTEXT ( 'detailed design', #11, 'design' ) ;
#310 = ORIENTED_EDGE ( 'NONE', *, *, #23, .F. ) ;
#311 = FACE_OUTER_BOUND ( 'NONE', #76, .T. ) ;
#312 = SURFACE_STYLE_USAGE ( .BOTH. , #148 ) ;
#313 = PRODUCT_DEFINITION ( 'Î´Öª', '', #79, #309 ) ;
#314 = SHAPE_DEFINITION_REPRESENTATION ( #19, #307 ) ;
#315 = DIRECTION ( 'NONE',  ( -1.000000000000000000, -0.0000000000000000000, -0.0000000000000000000 ) ) ;
#316 = ORIENTED_EDGE ( 'NONE', *, *, #272, .F. ) ;
#317 = SPHERICAL_SURFACE ( 'NONE', #320, 75.47900000000005600 ) ;
#318 = SURFACE_STYLE_FILL_AREA ( #333 ) ;
#319 =( LENGTH_UNIT ( ) NAMED_UNIT ( * ) SI_UNIT ( .MILLI., .METRE. ) );
#320 = AXIS2_PLACEMENT_3D ( 'NONE', #48, #257, #306 ) ;
#321 = DIRECTION ( 'NONE',  ( 0.0000000000000000000, -1.000000000000000000, 0.0000000000000000000 ) ) ;
#322 = ORIENTED_EDGE ( 'NONE', *, *, #21, .T. ) ;
#323 = PRESENTATION_STYLE_ASSIGNMENT (( #312 ) ) ;
#324 = AXIS2_PLACEMENT_3D ( 'NONE', #271, #61, #246 ) ;
#325 = EDGE_CURVE ( 'NONE', #31, #219, #88, .T. ) ;
#326 = SPHERICAL_SURFACE ( 'NONE', #4, 75.47900000000004200 ) ;
#327 = DIRECTION ( 'NONE',  ( 0.0000000000000000000, -1.000000000000000000, 0.0000000000000000000 ) ) ;
#328 = DIRECTION ( 'NONE',  ( 0.0000000000000000000, -1.224646799147353200E-016, 1.000000000000000000 ) ) ;
#329 = VERTEX_POINT ( 'NONE', #53 ) ;
#330 = SPHERICAL_SURFACE ( 'NONE', #59, 75.47900000000004200 ) ;
#331 = ADVANCED_FACE ( 'NONE', ( #142 ), #341, .T. ) ;
#332 =( NAMED_UNIT ( * ) PLANE_ANGLE_UNIT ( ) SI_UNIT ( $, .RADIAN. ) );
#333 = FILL_AREA_STYLE ('',( #133 ) ) ;
#334 = SURFACE_STYLE_USAGE ( .BOTH. , #304 ) ;
#335 = EDGE_CURVE ( 'NONE', #12, #170, #347, .T. ) ;
#336 = ORIENTED_EDGE ( 'NONE', *, *, #272, .T. ) ;
#337 = CARTESIAN_POINT ( 'NONE',  ( 252.8462856574959400, 1.928818708657081000E-015, -15.75000000000000000 ) ) ;
#338 = AXIS2_PLACEMENT_3D ( 'NONE', #81, #192, #171 ) ;
#339 = EDGE_LOOP ( 'NONE', ( #2, #129, #67 ) ) ;
#340 = FACE_OUTER_BOUND ( 'NONE', #163, .T. ) ;
#341 = CYLINDRICAL_SURFACE ( 'NONE', #110, 15.75000000000000000 ) ;
#342 = DIRECTION ( 'NONE',  ( 0.0000000000000000000, 0.0000000000000000000, 1.000000000000000000 ) ) ;
#343 = CARTESIAN_POINT ( 'NONE',  ( 124.5233095260452400, 0.0000000000000000000, 0.0000000000000000000 ) ) ;
#344 = AXIS2_PLACEMENT_3D ( 'NONE', #299, #327, #158 ) ;
#345 =( GEOMETRIC_REPRESENTATION_CONTEXT ( 3 ) GLOBAL_UNCERTAINTY_ASSIGNED_CONTEXT ( ( #78 ) ) GLOBAL_UNIT_ASSIGNED_CONTEXT ( ( #186, #126, #159 ) ) REPRESENTATION_CONTEXT ( 'NONE', 'WORKASPACE' ) );
#346 = EDGE_LOOP ( 'NONE', ( #24, #322, #176 ) ) ;
#347 = CIRCLE ( 'NONE', #123, 232.7030000000000000 ) ;
ENDSEC;
END-ISO-10303-21;
