ISO-10303-21;
HEADER;
FILE_DESCRIPTION (( 'STEP AP214' ),
    '1' );
FILE_NAME ('145064.STEP',
    '2019-05-14T07:00:20',
    ( 'user' ),
    ( 'Î¢ÈíÖÐ¹ú' ),
    'SwSTEP 2.0',
    'SolidWorks 2016',
    '' );
FILE_SCHEMA (( 'AUTOMOTIVE_DESIGN' ));
ENDSEC;

DATA;
#1 = DIRECTION ( 'NONE',  ( 0.0000000000000000000, 0.0000000000000000000, 1.000000000000000000 ) ) ;
#2 = PRESENTATION_LAYER_ASSIGNMENT (  '', '', ( #167 ) ) ;
#3 = CIRCLE ( 'NONE', #31, 738.5000000000000000 ) ;
#4 = CIRCLE ( 'NONE', #98, 181.5999999999999900 ) ;
#5 = SURFACE_STYLE_USAGE ( .BOTH. , #26 ) ;
#6 = CARTESIAN_POINT ( 'NONE',  ( 364.3902383849166400, 1.555301434917134900E-015, -12.69999999999990500 ) ) ;
#7 = ADVANCED_FACE ( 'NONE', ( #196 ), #72, .T. ) ;
#8 = EDGE_CURVE ( 'NONE', #35, #184, #4, .T. ) ;
#9 = ADVANCED_FACE ( 'NONE', ( #135 ), #209, .F. ) ;
#10 = DIRECTION ( 'NONE',  ( 0.0000000000000000000, 0.0000000000000000000, 1.000000000000000000 ) ) ;
#11 = ORIENTED_EDGE ( 'NONE', *, *, #295, .F. ) ;
#12 = CYLINDRICAL_SURFACE ( 'NONE', #280, 12.69999999999999900 ) ;
#13 =( GEOMETRIC_REPRESENTATION_CONTEXT ( 3 ) GLOBAL_UNCERTAINTY_ASSIGNED_CONTEXT ( ( #144 ) ) GLOBAL_UNIT_ASSIGNED_CONTEXT ( ( #284, #99, #229 ) ) REPRESENTATION_CONTEXT ( 'NONE', 'WORKASPACE' ) );
#14 = UNCERTAINTY_MEASURE_WITH_UNIT (LENGTH_MEASURE( 1.000000000000000100E-005 ), #223, 'distance_accuracy_value', 'NONE');
#15 = COLOUR_RGB ( '',1.000000000000000000, 1.000000000000000000, 1.000000000000000000 ) ;
#16 = AXIS2_PLACEMENT_3D ( 'NONE', #325, #210, #43 ) ;
#17 = ORIENTED_EDGE ( 'NONE', *, *, #147, .F. ) ;
#18 = VERTEX_POINT ( 'NONE', #174 ) ;
#19 = DIRECTION ( 'NONE',  ( -0.0000000000000000000, 1.000000000000000000, 1.224646799147353200E-016 ) ) ;
#20 = CARTESIAN_POINT ( 'NONE',  ( 235.8074506907544200, 1.555301434917138400E-015, -12.69999999999999900 ) ) ;
#21 = FACE_OUTER_BOUND ( 'NONE', #271, .T. ) ;
#22 = CARTESIAN_POINT ( 'NONE',  ( 362.0548228428708600, 0.0000000000000000000, 0.0000000000000000000 ) ) ;
#23 = CLOSED_SHELL ( 'NONE', ( #314, #49, #7, #320, #156, #82 ) ) ;
#24 = CARTESIAN_POINT ( 'NONE',  ( 180.8994475431023300, 0.0000000000000000000, -2.331420943353962200E-015 ) ) ;
#25 = EDGE_CURVE ( 'NONE', #85, #184, #281, .T. ) ;
#26 = SURFACE_SIDE_STYLE ('',( #183 ) ) ;
#27 = ORIENTED_EDGE ( 'NONE', *, *, #77, .T. ) ;
#28 = EDGE_CURVE ( 'NONE', #59, #212, #79, .T. ) ;
#29 = DIRECTION ( 'NONE',  ( 0.0000000000000000000, 0.0000000000000000000, 1.000000000000000000 ) ) ;
#30 = SPHERICAL_SURFACE ( 'NONE', #161, 181.5999999999999900 ) ;
#31 = AXIS2_PLACEMENT_3D ( 'NONE', #44, #180, #118 ) ;
#32 = ORIENTED_EDGE ( 'NONE', *, *, #170, .T. ) ;
#33 = ORIENTED_EDGE ( 'NONE', *, *, #283, .T. ) ;
#34 =( GEOMETRIC_REPRESENTATION_CONTEXT ( 3 ) GLOBAL_UNCERTAINTY_ASSIGNED_CONTEXT ( ( #54 ) ) GLOBAL_UNIT_ASSIGNED_CONTEXT ( ( #189, #197, #182 ) ) REPRESENTATION_CONTEXT ( 'NONE', 'WORKASPACE' ) );
#35 = VERTEX_POINT ( 'NONE', #45 ) ;
#36 = SHAPE_DEFINITION_REPRESENTATION ( #105, #290 ) ;
#37 =( LENGTH_UNIT ( ) NAMED_UNIT ( * ) SI_UNIT ( .MILLI., .METRE. ) );
#38 = FACE_OUTER_BOUND ( 'NONE', #107, .T. ) ;
#39 = CARTESIAN_POINT ( 'NONE',  ( 578.2994475431023600, 0.0000000000000000000, -4.564214166630799800E-016 ) ) ;
#40 = ORIENTED_EDGE ( 'NONE', *, *, #94, .T. ) ;
#41 = FILL_AREA_STYLE ('',( #272 ) ) ;
#42 = DIRECTION ( 'NONE',  ( 0.0000000000000000000, 0.0000000000000000000, 1.000000000000000000 ) ) ;
#43 = DIRECTION ( 'NONE',  ( 0.0000000000000000000, 0.0000000000000000000, 1.000000000000000000 ) ) ;
#44 = CARTESIAN_POINT ( 'NONE',  ( -374.0005524568977100, 0.0000000000000000000, 0.0000000000000000000 ) ) ;
#45 = CARTESIAN_POINT ( 'NONE',  ( 362.4994475431022900, 0.0000000000000000000, 8.788371992904004600E-015 ) ) ;
#46 = AXIS2_PLACEMENT_3D ( 'NONE', #214, #93, #1 ) ;
#47 = LINE ( 'NONE', #328, #67 ) ;
#48 = EDGE_LOOP ( 'NONE', ( #276, #123, #252 ) ) ;
#49 = ADVANCED_FACE ( 'NONE', ( #122 ), #12, .T. ) ;
#50 = DIRECTION ( 'NONE',  ( 0.0000000000000000000, 1.000000000000000000, 0.0000000000000000000 ) ) ;
#51 = DIRECTION ( 'NONE',  ( 0.0000000000000000000, 0.0000000000000000000, 1.000000000000000000 ) ) ;
#52 = ORIENTED_EDGE ( 'NONE', *, *, #77, .F. ) ;
#53 = DIRECTION ( 'NONE',  ( 0.0000000000000000000, 0.0000000000000000000, 1.000000000000000000 ) ) ;
#54 = UNCERTAINTY_MEASURE_WITH_UNIT (LENGTH_MEASURE( 1.000000000000000100E-005 ), #189, 'distance_accuracy_value', 'NONE');
#55 = VECTOR ( 'NONE', #75, 1000.000000000000000 ) ;
#56 = DIRECTION ( 'NONE',  ( 0.0000000000000000000, 0.0000000000000000000, 1.000000000000000000 ) ) ;
#57 = SURFACE_STYLE_FILL_AREA ( #41 ) ;
#58 =( NAMED_UNIT ( * ) SI_UNIT ( $, .STERADIAN. ) SOLID_ANGLE_UNIT ( ) );
#59 = VERTEX_POINT ( 'NONE', #263 ) ;
#60 = ORIENTED_EDGE ( 'NONE', *, *, #28, .F. ) ;
#61 = MECHANICAL_DESIGN_GEOMETRIC_PRESENTATION_REPRESENTATION (  '', ( #312 ), #298 ) ;
#62 = CIRCLE ( 'NONE', #292, 12.69999999999990500 ) ;
#63 = VERTEX_POINT ( 'NONE', #265 ) ;
#64 = CARTESIAN_POINT ( 'NONE',  ( 180.8994475431023300, 0.0000000000000000000, -2.331420943353962200E-015 ) ) ;
#65 = STYLED_ITEM ( 'NONE', ( #142 ), #290 ) ;
#66 = ADVANCED_FACE ( 'NONE', ( #68 ), #137, .T. ) ;
#67 = VECTOR ( 'NONE', #158, 1000.000000000000000 ) ;
#68 = FACE_OUTER_BOUND ( 'NONE', #335, .T. ) ;
#69 = MECHANICAL_DESIGN_GEOMETRIC_PRESENTATION_REPRESENTATION (  '', ( #65 ), #34 ) ;
#70 = DIRECTION ( 'NONE',  ( -1.000000000000000000, -0.0000000000000000000, -0.0000000000000000000 ) ) ;
#71 = SPHERICAL_SURFACE ( 'NONE', #16, 738.5000000000000000 ) ;
#72 = SPHERICAL_SURFACE ( 'NONE', #213, 219.7999999999999300 ) ;
#73 =( NAMED_UNIT ( * ) PLANE_ANGLE_UNIT ( ) SI_UNIT ( $, .RADIAN. ) );
#74 = DIRECTION ( 'NONE',  ( -1.000000000000000000, -0.0000000000000000000, -0.0000000000000000000 ) ) ;
#75 = DIRECTION ( 'NONE',  ( -1.000000000000000000, -0.0000000000000000000, -0.0000000000000000000 ) ) ;
#76 = CIRCLE ( 'NONE', #86, 12.69999999999999900 ) ;
#77 = EDGE_CURVE ( 'NONE', #308, #59, #138, .T. ) ;
#78 = UNCERTAINTY_MEASURE_WITH_UNIT (LENGTH_MEASURE( 1.000000000000000100E-005 ), #37, 'distance_accuracy_value', 'NONE');
#79 = CIRCLE ( 'NONE', #285, 12.69999999999990500 ) ;
#80 = AXIS2_PLACEMENT_3D ( 'NONE', #171, #286, #149 ) ;
#81 = DIRECTION ( 'NONE',  ( 0.0000000000000000000, 1.000000000000000000, 0.0000000000000000000 ) ) ;
#82 = ADVANCED_FACE ( 'NONE', ( #289 ), #30, .T. ) ;
#83 = AXIS2_PLACEMENT_3D ( 'NONE', #24, #236, #87 ) ;
#84 = DIRECTION ( 'NONE',  ( 0.0000000000000000000, 0.0000000000000000000, -1.000000000000000000 ) ) ;
#85 = VERTEX_POINT ( 'NONE', #153 ) ;
#86 = AXIS2_PLACEMENT_3D ( 'NONE', #204, #238, #56 ) ;
#87 = DIRECTION ( 'NONE',  ( 0.0000000000000000000, 0.0000000000000000000, -1.000000000000000000 ) ) ;
#88 = APPLICATION_CONTEXT ( 'automotive_design' ) ;
#89 = PRESENTATION_STYLE_ASSIGNMENT (( #108 ) ) ;
#90 = ORIENTED_EDGE ( 'NONE', *, *, #25, .T. ) ;
#91 = ORIENTED_EDGE ( 'NONE', *, *, #25, .F. ) ;
#92 = AXIS2_PLACEMENT_3D ( 'NONE', #317, #121, #152 ) ;
#93 = DIRECTION ( 'NONE',  ( -1.000000000000000000, -0.0000000000000000000, -0.0000000000000000000 ) ) ;
#94 = EDGE_CURVE ( 'NONE', #254, #129, #249, .T. ) ;
#95 = ORIENTED_EDGE ( 'NONE', *, *, #28, .T. ) ;
#96 = FILL_AREA_STYLE_COLOUR ( '', #15 ) ;
#97 = DIRECTION ( 'NONE',  ( -1.000000000000000000, -0.0000000000000000000, -0.0000000000000000000 ) ) ;
#98 = AXIS2_PLACEMENT_3D ( 'NONE', #319, #194, #193 ) ;
#99 =( NAMED_UNIT ( * ) PLANE_ANGLE_UNIT ( ) SI_UNIT ( $, .RADIAN. ) );
#100 = SURFACE_STYLE_USAGE ( .BOTH. , #287 ) ;
#101 = AXIS2_PLACEMENT_3D ( 'NONE', #176, #115, #10 ) ;
#102 = ORIENTED_EDGE ( 'NONE', *, *, #170, .F. ) ;
#103 = ORIENTED_EDGE ( 'NONE', *, *, #305, .T. ) ;
#104 = EDGE_CURVE ( 'NONE', #184, #85, #262, .T. ) ;
#105 = PRODUCT_DEFINITION_SHAPE ( 'NONE', 'NONE',  #132 ) ;
#106 = EDGE_CURVE ( 'NONE', #294, #254, #47, .T. ) ;
#107 = EDGE_LOOP ( 'NONE', ( #188, #33, #11 ) ) ;
#108 = SURFACE_STYLE_USAGE ( .BOTH. , #124 ) ;
#109 = CYLINDRICAL_SURFACE ( 'NONE', #186, 12.70000000000003700 ) ;
#110 = AXIS2_PLACEMENT_3D ( 'NONE', #139, #230, #343 ) ;
#111 = DIRECTION ( 'NONE',  ( 0.0000000000000000000, 1.000000000000000000, 0.0000000000000000000 ) ) ;
#112 = DIRECTION ( 'NONE',  ( 0.0000000000000000000, 0.0000000000000000000, 1.000000000000000000 ) ) ;
#113 = CLOSED_SHELL ( 'NONE', ( #66, #297, #148, #9, #248, #273 ) ) ;
#114 = VERTEX_POINT ( 'NONE', #304 ) ;
#115 = DIRECTION ( 'NONE',  ( 0.0000000000000000000, 1.000000000000000000, 0.0000000000000000000 ) ) ;
#116 = ORIENTED_EDGE ( 'NONE', *, *, #295, .T. ) ;
#117 = FILL_AREA_STYLE ('',( #96 ) ) ;
#118 = DIRECTION ( 'NONE',  ( 0.0000000000000000000, -1.224646799147353200E-016, 1.000000000000000000 ) ) ;
#119 = CYLINDRICAL_SURFACE ( 'NONE', #323, 12.70000000000003700 ) ;
#120 = DIRECTION ( 'NONE',  ( -1.000000000000000000, -0.0000000000000000000, -0.0000000000000000000 ) ) ;
#121 = DIRECTION ( 'NONE',  ( 0.0000000000000000000, -1.000000000000000000, 0.0000000000000000000 ) ) ;
#122 = FACE_OUTER_BOUND ( 'NONE', #321, .T. ) ;
#123 = ORIENTED_EDGE ( 'NONE', *, *, #8, .T. ) ;
#124 = SURFACE_SIDE_STYLE ('',( #57 ) ) ;
#125 = DIRECTION ( 'NONE',  ( -1.000000000000000000, -0.0000000000000000000, -0.0000000000000000000 ) ) ;
#126 = ORIENTED_EDGE ( 'NONE', *, *, #231, .T. ) ;
#127 = CARTESIAN_POINT ( 'NONE',  ( 180.8994475431023300, 0.0000000000000000000, -2.331420943353962200E-015 ) ) ;
#128 = CARTESIAN_POINT ( 'NONE',  ( -374.0005524568977100, 0.0000000000000000000, 0.0000000000000000000 ) ) ;
#129 = VERTEX_POINT ( 'NONE', #293 ) ;
#130 =( GEOMETRIC_REPRESENTATION_CONTEXT ( 3 ) GLOBAL_UNCERTAINTY_ASSIGNED_CONTEXT ( ( #78 ) ) GLOBAL_UNIT_ASSIGNED_CONTEXT ( ( #37, #73, #274 ) ) REPRESENTATION_CONTEXT ( 'NONE', 'WORKASPACE' ) );
#131 = DIRECTION ( 'NONE',  ( -1.000000000000000000, -0.0000000000000000000, -0.0000000000000000000 ) ) ;
#132 = PRODUCT_DEFINITION ( 'Î´Öª', '', #136, #307 ) ;
#133 = DIRECTION ( 'NONE',  ( 0.0000000000000000000, -1.000000000000000000, 0.0000000000000000000 ) ) ;
#134 = ORIENTED_EDGE ( 'NONE', *, *, #242, .F. ) ;
#135 = FACE_OUTER_BOUND ( 'NONE', #333, .T. ) ;
#136 = PRODUCT_DEFINITION_FORMATION_WITH_SPECIFIED_SOURCE ( 'ÈÎºÎ', '', #275, .NOT_KNOWN. ) ;
#137 = SPHERICAL_SURFACE ( 'NONE', #181, 738.5000000000000000 ) ;
#138 = CIRCLE ( 'NONE', #331, 738.5000000000000000 ) ;
#139 = CARTESIAN_POINT ( 'NONE',  ( 362.0548228428708600, 0.0000000000000000000, 0.0000000000000000000 ) ) ;
#140 = EDGE_CURVE ( 'NONE', #114, #294, #300, .T. ) ;
#141 = ORIENTED_EDGE ( 'NONE', *, *, #226, .T. ) ;
#142 = PRESENTATION_STYLE_ASSIGNMENT (( #100 ) ) ;
#143 = DIRECTION ( 'NONE',  ( 0.0000000000000000000, 0.0000000000000000000, -1.000000000000000000 ) ) ;
#144 = UNCERTAINTY_MEASURE_WITH_UNIT (LENGTH_MEASURE( 1.000000000000000100E-005 ), #284, 'distance_accuracy_value', 'NONE');
#145 = LINE ( 'NONE', #20, #202 ) ;
#146 = FILL_AREA_STYLE ('',( #279 ) ) ;
#147 = EDGE_CURVE ( 'NONE', #308, #212, #3, .T. ) ;
#148 = ADVANCED_FACE ( 'NONE', ( #160 ), #221, .F. ) ;
#149 = DIRECTION ( 'NONE',  ( 0.0000000000000000000, -1.224646799147353500E-016, 1.000000000000000000 ) ) ;
#150 = COLOUR_RGB ( '',1.000000000000000000, 1.000000000000000000, 1.000000000000000000 ) ;
#151 = EDGE_LOOP ( 'NONE', ( #301, #32, #103, #342 ) ) ;
#152 = DIRECTION ( 'NONE',  ( 0.0000000000000000000, 0.0000000000000000000, -1.000000000000000000 ) ) ;
#153 = CARTESIAN_POINT ( 'NONE',  ( 362.0548228428708600, 0.0000000000000000000, 12.70000000000011100 ) ) ;
#154 = CARTESIAN_POINT ( 'NONE',  ( 0.0000000000000000000, 0.0000000000000000000, 0.0000000000000000000 ) ) ;
#155 = DIRECTION ( 'NONE',  ( 0.0000000000000000000, 0.0000000000000000000, 1.000000000000000000 ) ) ;
#156 = ADVANCED_FACE ( 'NONE', ( #334 ), #278, .T. ) ;
#157 = VECTOR ( 'NONE', #260, 1000.000000000000000 ) ;
#158 = DIRECTION ( 'NONE',  ( -1.000000000000000000, -0.0000000000000000000, -0.0000000000000000000 ) ) ;
#159 = EDGE_CURVE ( 'NONE', #35, #85, #264, .T. ) ;
#160 = FACE_OUTER_BOUND ( 'NONE', #48, .T. ) ;
#161 = AXIS2_PLACEMENT_3D ( 'NONE', #64, #310, #228 ) ;
#162 = ORIENTED_EDGE ( 'NONE', *, *, #187, .F. ) ;
#163 = APPLICATION_PROTOCOL_DEFINITION ( 'draft international standard', 'automotive_design', 1998, #315 ) ;
#164 = AXIS2_PLACEMENT_3D ( 'NONE', #245, #19, #251 ) ;
#165 = EDGE_LOOP ( 'NONE', ( #40, #185, #134 ) ) ;
#166 = EDGE_LOOP ( 'NONE', ( #329, #347, #191, #162 ) ) ;
#167 = STYLED_ITEM ( 'NONE', ( #220 ), #346 ) ;
#168 = CARTESIAN_POINT ( 'NONE',  ( -0.5519199926577972300, 1.555301434917143000E-015, -12.70000000000003700 ) ) ;
#169 = DIRECTION ( 'NONE',  ( 1.000000000000000000, 0.0000000000000000000, 0.0000000000000000000 ) ) ;
#170 = EDGE_CURVE ( 'NONE', #212, #59, #62, .T. ) ;
#171 = CARTESIAN_POINT ( 'NONE',  ( 578.2994475431023600, 0.0000000000000000000, -4.564214166630799800E-016 ) ) ;
#172 = CARTESIAN_POINT ( 'NONE',  ( 180.8994475431023300, 0.0000000000000000000, -2.331420943353962200E-015 ) ) ;
#173 = PRESENTATION_LAYER_ASSIGNMENT (  '', '', ( #65 ) ) ;
#174 = CARTESIAN_POINT ( 'NONE',  ( 358.4994475431024100, 0.0000000000000000000, 1.300244690596632800E-014 ) ) ;
#175 = AXIS2_PLACEMENT_3D ( 'NONE', #336, #291, #29 ) ;
#176 = CARTESIAN_POINT ( 'NONE',  ( 578.2994475431023600, 0.0000000000000000000, -4.564214166630799800E-016 ) ) ;
#177 = DIRECTION ( 'NONE',  ( 0.0000000000000000000, 0.0000000000000000000, 1.000000000000000000 ) ) ;
#178 = ORIENTED_EDGE ( 'NONE', *, *, #140, .F. ) ;
#179 = EDGE_CURVE ( 'NONE', #129, #18, #268, .T. ) ;
#180 = DIRECTION ( 'NONE',  ( -0.0000000000000000000, 1.000000000000000000, 1.224646799147353200E-016 ) ) ;
#181 = AXIS2_PLACEMENT_3D ( 'NONE', #128, #50, #53 ) ;
#182 =( NAMED_UNIT ( * ) SI_UNIT ( $, .STERADIAN. ) SOLID_ANGLE_UNIT ( ) );
#183 = SURFACE_STYLE_FILL_AREA ( #117 ) ;
#184 = VERTEX_POINT ( 'NONE', #234 ) ;
#185 = ORIENTED_EDGE ( 'NONE', *, *, #179, .T. ) ;
#186 = AXIS2_PLACEMENT_3D ( 'NONE', #200, #311, #42 ) ;
#187 = EDGE_CURVE ( 'NONE', #129, #254, #76, .T. ) ;
#188 = ORIENTED_EDGE ( 'NONE', *, *, #231, .F. ) ;
#189 =( LENGTH_UNIT ( ) NAMED_UNIT ( * ) SI_UNIT ( .MILLI., .METRE. ) );
#190 = CARTESIAN_POINT ( 'NONE',  ( 358.8666560100227800, 0.0000000000000000000, 0.0000000000000000000 ) ) ;
#191 = ORIENTED_EDGE ( 'NONE', *, *, #106, .T. ) ;
#192 = EDGE_LOOP ( 'NONE', ( #17, #27, #102 ) ) ;
#193 = DIRECTION ( 'NONE',  ( 0.0000000000000000000, -1.224646799147353200E-016, 1.000000000000000000 ) ) ;
#194 = DIRECTION ( 'NONE',  ( -0.0000000000000000000, 1.000000000000000000, 1.224646799147353200E-016 ) ) ;
#195 = AXIS2_PLACEMENT_3D ( 'NONE', #172, #81, #266 ) ;
#196 = FACE_OUTER_BOUND ( 'NONE', #165, .T. ) ;
#197 =( NAMED_UNIT ( * ) PLANE_ANGLE_UNIT ( ) SI_UNIT ( $, .RADIAN. ) );
#198 = DIRECTION ( 'NONE',  ( 0.0000000000000000000, 0.0000000000000000000, 1.000000000000000000 ) ) ;
#199 = DIRECTION ( 'NONE',  ( 0.0000000000000000000, 1.000000000000000000, 0.0000000000000000000 ) ) ;
#200 = CARTESIAN_POINT ( 'NONE',  ( -0.5519199926577972300, 0.0000000000000000000, 0.0000000000000000000 ) ) ;
#201 = CARTESIAN_POINT ( 'NONE',  ( -0.5519199926577972300, 0.0000000000000000000, 0.0000000000000000000 ) ) ;
#202 = VECTOR ( 'NONE', #206, 1000.000000000000000 ) ;
#203 = ORIENTED_EDGE ( 'NONE', *, *, #8, .F. ) ;
#204 = CARTESIAN_POINT ( 'NONE',  ( 358.8666560100227800, 0.0000000000000000000, 0.0000000000000000000 ) ) ;
#205 = APPLICATION_PROTOCOL_DEFINITION ( 'draft international standard', 'automotive_design', 1998, #88 ) ;
#206 = DIRECTION ( 'NONE',  ( -1.000000000000000000, -0.0000000000000000000, -0.0000000000000000000 ) ) ;
#207 = ORIENTED_EDGE ( 'NONE', *, *, #283, .F. ) ;
#208 = MECHANICAL_DESIGN_GEOMETRIC_PRESENTATION_REPRESENTATION (  '', ( #167 ), #130 ) ;
#209 = SPHERICAL_SURFACE ( 'NONE', #195, 181.5999999999999900 ) ;
#210 = DIRECTION ( 'NONE',  ( 0.0000000000000000000, 1.000000000000000000, 0.0000000000000000000 ) ) ;
#211 = SPHERICAL_SURFACE ( 'NONE', #101, 219.7999999999999300 ) ;
#212 = VERTEX_POINT ( 'NONE', #6 ) ;
#213 = AXIS2_PLACEMENT_3D ( 'NONE', #39, #253, #235 ) ;
#214 = CARTESIAN_POINT ( 'NONE',  ( 362.0548228428708600, 0.0000000000000000000, 0.0000000000000000000 ) ) ;
#215 = FACE_OUTER_BOUND ( 'NONE', #192, .T. ) ;
#216 = AXIS2_PLACEMENT_3D ( 'NONE', #246, #337, #143 ) ;
#217 = DIRECTION ( 'NONE',  ( 0.0000000000000000000, 0.0000000000000000000, 1.000000000000000000 ) ) ;
#218 = CIRCLE ( 'NONE', #216, 181.5999999999999900 ) ;
#219 = AXIS2_PLACEMENT_3D ( 'NONE', #22, #74, #259 ) ;
#220 = PRESENTATION_STYLE_ASSIGNMENT (( #5 ) ) ;
#221 = SPHERICAL_SURFACE ( 'NONE', #224, 181.5999999999999900 ) ;
#222 = ORIENTED_EDGE ( 'NONE', *, *, #242, .T. ) ;
#223 =( LENGTH_UNIT ( ) NAMED_UNIT ( * ) SI_UNIT ( .MILLI., .METRE. ) );
#224 = AXIS2_PLACEMENT_3D ( 'NONE', #127, #199, #313 ) ;
#225 = CARTESIAN_POINT ( 'NONE',  ( 364.3902383849166400, 0.0000000000000000000, 0.0000000000000000000 ) ) ;
#226 = EDGE_CURVE ( 'NONE', #212, #184, #267, .T. ) ;
#227 = CIRCLE ( 'NONE', #46, 12.69999999999999900 ) ;
#228 = DIRECTION ( 'NONE',  ( 0.0000000000000000000, 0.0000000000000000000, 1.000000000000000000 ) ) ;
#229 =( NAMED_UNIT ( * ) SI_UNIT ( $, .STERADIAN. ) SOLID_ANGLE_UNIT ( ) );
#230 = DIRECTION ( 'NONE',  ( -1.000000000000000000, -0.0000000000000000000, -0.0000000000000000000 ) ) ;
#231 = EDGE_CURVE ( 'NONE', #63, #294, #218, .T. ) ;
#232 = ORIENTED_EDGE ( 'NONE', *, *, #94, .F. ) ;
#233 = COLOUR_RGB ( '',1.000000000000000000, 1.000000000000000000, 1.000000000000000000 ) ;
#234 = CARTESIAN_POINT ( 'NONE',  ( 362.0548228428708600, 1.555301434917152000E-015, -12.70000000000011100 ) ) ;
#235 = DIRECTION ( 'NONE',  ( 0.0000000000000000000, 0.0000000000000000000, 1.000000000000000000 ) ) ;
#236 = DIRECTION ( 'NONE',  ( 0.0000000000000000000, -1.000000000000000000, 0.0000000000000000000 ) ) ;
#237 = ORIENTED_EDGE ( 'NONE', *, *, #147, .T. ) ;
#238 = DIRECTION ( 'NONE',  ( -1.000000000000000000, -0.0000000000000000000, -0.0000000000000000000 ) ) ;
#239 = EDGE_CURVE ( 'NONE', #114, #129, #145, .T. ) ;
#240 = DIRECTION ( 'NONE',  ( 0.0000000000000000000, 0.0000000000000000000, 1.000000000000000000 ) ) ;
#241 = EDGE_LOOP ( 'NONE', ( #95, #141, #91, #341 ) ) ;
#242 = EDGE_CURVE ( 'NONE', #254, #18, #339, .T. ) ;
#243 = ORIENTED_EDGE ( 'NONE', *, *, #106, .F. ) ;
#244 = SURFACE_STYLE_FILL_AREA ( #146 ) ;
#245 = CARTESIAN_POINT ( 'NONE',  ( 180.8994475431023300, 0.0000000000000000000, -2.331420943353962200E-015 ) ) ;
#246 = CARTESIAN_POINT ( 'NONE',  ( 180.8994475431023300, 0.0000000000000000000, -2.331420943353962200E-015 ) ) ;
#247 = AXIS2_PLACEMENT_3D ( 'NONE', #255, #70, #217 ) ;
#248 = ADVANCED_FACE ( 'NONE', ( #288 ), #119, .T. ) ;
#249 = CIRCLE ( 'NONE', #277, 12.69999999999999900 ) ;
#250 = FACE_OUTER_BOUND ( 'NONE', #241, .T. ) ;
#251 = DIRECTION ( 'NONE',  ( 0.0000000000000000000, -1.224646799147353200E-016, 1.000000000000000000 ) ) ;
#252 = ORIENTED_EDGE ( 'NONE', *, *, #104, .T. ) ;
#253 = DIRECTION ( 'NONE',  ( 0.0000000000000000000, 1.000000000000000000, 0.0000000000000000000 ) ) ;
#254 = VERTEX_POINT ( 'NONE', #256 ) ;
#255 = CARTESIAN_POINT ( 'NONE',  ( 235.8074506907544200, 0.0000000000000000000, 0.0000000000000000000 ) ) ;
#256 = CARTESIAN_POINT ( 'NONE',  ( 358.8666560100227800, 0.0000000000000000000, 12.70000000000002800 ) ) ;
#257 = CARTESIAN_POINT ( 'NONE',  ( 362.0548228428708600, 0.0000000000000000000, 12.69999999999999900 ) ) ;
#258 = LINE ( 'NONE', #306, #55 ) ;
#259 = DIRECTION ( 'NONE',  ( 0.0000000000000000000, 0.0000000000000000000, 1.000000000000000000 ) ) ;
#260 = DIRECTION ( 'NONE',  ( -1.000000000000000000, -0.0000000000000000000, -0.0000000000000000000 ) ) ;
#261 = DIRECTION ( 'NONE',  ( 0.0000000000000000000, 0.0000000000000000000, 1.000000000000000000 ) ) ;
#262 = CIRCLE ( 'NONE', #110, 12.70000000000016600 ) ;
#263 = CARTESIAN_POINT ( 'NONE',  ( 364.3902383849166400, 0.0000000000000000000, 12.69999999999990500 ) ) ;
#264 = CIRCLE ( 'NONE', #83, 181.5999999999999900 ) ;
#265 = CARTESIAN_POINT ( 'NONE',  ( 362.4994475431022900, 0.0000000000000000000, 8.788371992904004600E-015 ) ) ;
#266 = DIRECTION ( 'NONE',  ( 0.0000000000000000000, 0.0000000000000000000, 1.000000000000000000 ) ) ;
#267 = LINE ( 'NONE', #168, #157 ) ;
#268 = CIRCLE ( 'NONE', #80, 219.7999999999999300 ) ;
#269 = PRESENTATION_LAYER_ASSIGNMENT (  '', '', ( #312 ) ) ;
#270 = CARTESIAN_POINT ( 'NONE',  ( 180.8994475431023300, 0.0000000000000000000, -2.331420943353962200E-015 ) ) ;
#271 = EDGE_LOOP ( 'NONE', ( #309, #322, #222 ) ) ;
#272 = FILL_AREA_STYLE_COLOUR ( '', #150 ) ;
#273 = ADVANCED_FACE ( 'NONE', ( #215 ), #71, .T. ) ;
#274 =( NAMED_UNIT ( * ) SI_UNIT ( $, .STERADIAN. ) SOLID_ANGLE_UNIT ( ) );
#275 = PRODUCT ( '145064', '145064', '', ( #344 ) ) ;
#276 = ORIENTED_EDGE ( 'NONE', *, *, #159, .F. ) ;
#277 = AXIS2_PLACEMENT_3D ( 'NONE', #190, #131, #177 ) ;
#278 = CYLINDRICAL_SURFACE ( 'NONE', #247, 12.69999999999999900 ) ;
#279 = FILL_AREA_STYLE_COLOUR ( '', #233 ) ;
#280 = AXIS2_PLACEMENT_3D ( 'NONE', #330, #125, #51 ) ;
#281 = CIRCLE ( 'NONE', #175, 12.70000000000016600 ) ;
#282 = CARTESIAN_POINT ( 'NONE',  ( 364.4994475431022900, 0.0000000000000000000, 4.522008305851601700E-014 ) ) ;
#283 = EDGE_CURVE ( 'NONE', #63, #114, #327, .T. ) ;
#284 =( LENGTH_UNIT ( ) NAMED_UNIT ( * ) SI_UNIT ( .MILLI., .METRE. ) );
#285 = AXIS2_PLACEMENT_3D ( 'NONE', #225, #120, #261 ) ;
#286 = DIRECTION ( 'NONE',  ( -0.0000000000000000000, 1.000000000000000000, 1.224646799147353200E-016 ) ) ;
#287 = SURFACE_SIDE_STYLE ('',( #244 ) ) ;
#288 = FACE_OUTER_BOUND ( 'NONE', #151, .T. ) ;
#289 = FACE_OUTER_BOUND ( 'NONE', #340, .T. ) ;
#290 = ADVANCED_BREP_SHAPE_REPRESENTATION ( '145064', ( #338, #346, #318 ), #13 ) ;
#291 = DIRECTION ( 'NONE',  ( -1.000000000000000000, -0.0000000000000000000, -0.0000000000000000000 ) ) ;
#292 = AXIS2_PLACEMENT_3D ( 'NONE', #316, #324, #198 ) ;
#293 = CARTESIAN_POINT ( 'NONE',  ( 358.8666560100227800, 1.555301434917142000E-015, -12.70000000000002800 ) ) ;
#294 = VERTEX_POINT ( 'NONE', #257 ) ;
#295 = EDGE_CURVE ( 'NONE', #294, #114, #227, .T. ) ;
#296 = SPHERICAL_SURFACE ( 'NONE', #303, 181.5999999999999900 ) ;
#297 = ADVANCED_FACE ( 'NONE', ( #250 ), #109, .T. ) ;
#298 =( GEOMETRIC_REPRESENTATION_CONTEXT ( 3 ) GLOBAL_UNCERTAINTY_ASSIGNED_CONTEXT ( ( #14 ) ) GLOBAL_UNIT_ASSIGNED_CONTEXT ( ( #223, #299, #58 ) ) REPRESENTATION_CONTEXT ( 'NONE', 'WORKASPACE' ) );
#299 =( NAMED_UNIT ( * ) PLANE_ANGLE_UNIT ( ) SI_UNIT ( $, .RADIAN. ) );
#300 = CIRCLE ( 'NONE', #219, 12.69999999999999900 ) ;
#301 = ORIENTED_EDGE ( 'NONE', *, *, #226, .F. ) ;
#302 = CARTESIAN_POINT ( 'NONE',  ( -374.0005524568977100, 0.0000000000000000000, 0.0000000000000000000 ) ) ;
#303 = AXIS2_PLACEMENT_3D ( 'NONE', #270, #111, #240 ) ;
#304 = CARTESIAN_POINT ( 'NONE',  ( 362.0548228428708600, 1.555301434917138400E-015, -12.69999999999999900 ) ) ;
#305 = EDGE_CURVE ( 'NONE', #59, #85, #258, .T. ) ;
#306 = CARTESIAN_POINT ( 'NONE',  ( -0.5519199926577972300, 0.0000000000000000000, 12.70000000000003700 ) ) ;
#307 = PRODUCT_DEFINITION_CONTEXT ( 'detailed design', #88, 'design' ) ;
#308 = VERTEX_POINT ( 'NONE', #282 ) ;
#309 = ORIENTED_EDGE ( 'NONE', *, *, #179, .F. ) ;
#310 = DIRECTION ( 'NONE',  ( 0.0000000000000000000, 1.000000000000000000, 0.0000000000000000000 ) ) ;
#311 = DIRECTION ( 'NONE',  ( -1.000000000000000000, -0.0000000000000000000, -0.0000000000000000000 ) ) ;
#312 = STYLED_ITEM ( 'NONE', ( #89 ), #338 ) ;
#313 = DIRECTION ( 'NONE',  ( 0.0000000000000000000, 0.0000000000000000000, 1.000000000000000000 ) ) ;
#314 = ADVANCED_FACE ( 'NONE', ( #38 ), #296, .T. ) ;
#315 = APPLICATION_CONTEXT ( 'automotive_design' ) ;
#316 = CARTESIAN_POINT ( 'NONE',  ( 364.3902383849166400, 0.0000000000000000000, 0.0000000000000000000 ) ) ;
#317 = CARTESIAN_POINT ( 'NONE',  ( 578.2994475431023600, 0.0000000000000000000, -4.564214166630799800E-016 ) ) ;
#318 = AXIS2_PLACEMENT_3D ( 'NONE', #154, #112, #169 ) ;
#319 = CARTESIAN_POINT ( 'NONE',  ( 180.8994475431023300, 0.0000000000000000000, -2.331420943353962200E-015 ) ) ;
#320 = ADVANCED_FACE ( 'NONE', ( #21 ), #211, .T. ) ;
#321 = EDGE_LOOP ( 'NONE', ( #116, #345, #232, #243 ) ) ;
#322 = ORIENTED_EDGE ( 'NONE', *, *, #187, .T. ) ;
#323 = AXIS2_PLACEMENT_3D ( 'NONE', #201, #97, #155 ) ;
#324 = DIRECTION ( 'NONE',  ( -1.000000000000000000, -0.0000000000000000000, -0.0000000000000000000 ) ) ;
#325 = CARTESIAN_POINT ( 'NONE',  ( -374.0005524568977100, 0.0000000000000000000, 0.0000000000000000000 ) ) ;
#326 = PRODUCT_RELATED_PRODUCT_CATEGORY ( 'part', '', ( #275 ) ) ;
#327 = CIRCLE ( 'NONE', #164, 181.5999999999999900 ) ;
#328 = CARTESIAN_POINT ( 'NONE',  ( 235.8074506907544200, 0.0000000000000000000, 12.69999999999999900 ) ) ;
#329 = ORIENTED_EDGE ( 'NONE', *, *, #239, .F. ) ;
#330 = CARTESIAN_POINT ( 'NONE',  ( 235.8074506907544200, 0.0000000000000000000, 0.0000000000000000000 ) ) ;
#331 = AXIS2_PLACEMENT_3D ( 'NONE', #302, #133, #84 ) ;
#332 = ORIENTED_EDGE ( 'NONE', *, *, #159, .T. ) ;
#333 = EDGE_LOOP ( 'NONE', ( #203, #332, #90 ) ) ;
#334 = FACE_OUTER_BOUND ( 'NONE', #166, .T. ) ;
#335 = EDGE_LOOP ( 'NONE', ( #52, #237, #60 ) ) ;
#336 = CARTESIAN_POINT ( 'NONE',  ( 362.0548228428708600, 0.0000000000000000000, 0.0000000000000000000 ) ) ;
#337 = DIRECTION ( 'NONE',  ( 0.0000000000000000000, -1.000000000000000000, 0.0000000000000000000 ) ) ;
#338 = MANIFOLD_SOLID_BREP ( 'Ðý×ª1', #23 ) ;
#339 = CIRCLE ( 'NONE', #92, 219.7999999999999300 ) ;
#340 = EDGE_LOOP ( 'NONE', ( #207, #126, #178 ) ) ;
#341 = ORIENTED_EDGE ( 'NONE', *, *, #305, .F. ) ;
#342 = ORIENTED_EDGE ( 'NONE', *, *, #104, .F. ) ;
#343 = DIRECTION ( 'NONE',  ( 0.0000000000000000000, 0.0000000000000000000, 1.000000000000000000 ) ) ;
#344 = PRODUCT_CONTEXT ( 'NONE', #315, 'mechanical' ) ;
#345 = ORIENTED_EDGE ( 'NONE', *, *, #239, .T. ) ;
#346 = MANIFOLD_SOLID_BREP ( 'Ðý×ª3', #113 ) ;
#347 = ORIENTED_EDGE ( 'NONE', *, *, #140, .T. ) ;
ENDSEC;
END-ISO-10303-21;
