ISO-10303-21;
HEADER;
FILE_DESCRIPTION (( 'STEP AP214' ),
    '1' );
FILE_NAME ('145060.STEP',
    '2019-05-14T03:40:24',
    ( 'user' ),
    ( 'Î¢ÈíÖÐ¹ú' ),
    'SwSTEP 2.0',
    'SolidWorks 2016',
    '' );
FILE_SCHEMA (( 'AUTOMOTIVE_DESIGN' ));
ENDSEC;

DATA;
#1 = AXIS2_PLACEMENT_3D ( 'NONE', #301, #6, #308 ) ;
#2 = ADVANCED_FACE ( 'NONE', ( #25 ), #336, .T. ) ;
#3 = CARTESIAN_POINT ( 'NONE',  ( 235.8074506907544200, 0.0000000000000000000, 0.0000000000000000000 ) ) ;
#4 = ORIENTED_EDGE ( 'NONE', *, *, #86, .T. ) ;
#5 = EDGE_LOOP ( 'NONE', ( #84, #92, #160 ) ) ;
#6 = DIRECTION ( 'NONE',  ( -0.0000000000000000000, 1.000000000000000000, 1.224646799147353200E-016 ) ) ;
#7 = SPHERICAL_SURFACE ( 'NONE', #338, 66.69999999999998900 ) ;
#8 = CARTESIAN_POINT ( 'NONE',  ( 235.8074506907544200, 0.0000000000000000000, 12.69999999999999600 ) ) ;
#9 = DIRECTION ( 'NONE',  ( -1.000000000000000000, -0.0000000000000000000, -0.0000000000000000000 ) ) ;
#10 = ORIENTED_EDGE ( 'NONE', *, *, #202, .T. ) ;
#11 = PRESENTATION_LAYER_ASSIGNMENT (  '', '', ( #163 ) ) ;
#12 = VERTEX_POINT ( 'NONE', #274 ) ;
#13 = CARTESIAN_POINT ( 'NONE',  ( 211.0958458084194300, 0.0000000000000000000, -3.185954776904472300E-015 ) ) ;
#14 = SPHERICAL_SURFACE ( 'NONE', #263, 91.59999999999998000 ) ;
#15 = LINE ( 'NONE', #70, #290 ) ;
#16 = DIRECTION ( 'NONE',  ( -1.000000000000000000, -0.0000000000000000000, -0.0000000000000000000 ) ) ;
#17 = CARTESIAN_POINT ( 'NONE',  ( 276.5756136760592800, 1.555301434917138400E-015, -12.70000000000000300 ) ) ;
#18 = CIRCLE ( 'NONE', #73, 12.69999999999999600 ) ;
#19 = CARTESIAN_POINT ( 'NONE',  ( -0.5519199926577972300, 1.555301434917136100E-015, -12.69999999999997800 ) ) ;
#20 = CARTESIAN_POINT ( 'NONE',  ( 363.6958458084194500, 0.0000000000000000000, -3.750986378649689900E-015 ) ) ;
#21 = ORIENTED_EDGE ( 'NONE', *, *, #320, .T. ) ;
#22 = FACE_OUTER_BOUND ( 'NONE', #148, .T. ) ;
#23 = DIRECTION ( 'NONE',  ( -1.000000000000000000, -0.0000000000000000000, -0.0000000000000000000 ) ) ;
#24 = AXIS2_PLACEMENT_3D ( 'NONE', #244, #39, #216 ) ;
#25 = FACE_OUTER_BOUND ( 'NONE', #339, .T. ) ;
#26 = MANIFOLD_SOLID_BREP ( 'Ðý×ª3', #319 ) ;
#27 =( LENGTH_UNIT ( ) NAMED_UNIT ( * ) SI_UNIT ( .MILLI., .METRE. ) );
#28 = EDGE_CURVE ( 'NONE', #200, #33, #62, .T. ) ;
#29 = ORIENTED_EDGE ( 'NONE', *, *, #250, .F. ) ;
#30 = CIRCLE ( 'NONE', #111, 66.69999999999998900 ) ;
#31 = DIRECTION ( 'NONE',  ( 0.0000000000000000000, 0.0000000000000000000, 1.000000000000000000 ) ) ;
#32 = CARTESIAN_POINT ( 'NONE',  ( 279.5875080752268200, 0.0000000000000000000, 0.0000000000000000000 ) ) ;
#33 = VERTEX_POINT ( 'NONE', #151 ) ;
#34 = EDGE_CURVE ( 'NONE', #234, #33, #55, .T. ) ;
#35 = PRESENTATION_LAYER_ASSIGNMENT (  '', '', ( #43 ) ) ;
#36 = DIRECTION ( 'NONE',  ( 0.0000000000000000000, 0.0000000000000000000, -1.000000000000000000 ) ) ;
#37 = CARTESIAN_POINT ( 'NONE',  ( 363.6958458084194500, 0.0000000000000000000, -3.750986378649689900E-015 ) ) ;
#38 = FACE_OUTER_BOUND ( 'NONE', #294, .T. ) ;
#39 = DIRECTION ( 'NONE',  ( -0.0000000000000000000, 1.000000000000000000, 1.224646799147353200E-016 ) ) ;
#40 = ORIENTED_EDGE ( 'NONE', *, *, #147, .F. ) ;
#41 = COLOUR_RGB ( '',1.000000000000000000, 1.000000000000000000, 1.000000000000000000 ) ;
#42 = CARTESIAN_POINT ( 'NONE',  ( 0.0000000000000000000, 0.0000000000000000000, 0.0000000000000000000 ) ) ;
#43 = STYLED_ITEM ( 'NONE', ( #112 ), #309 ) ;
#44 = ORIENTED_EDGE ( 'NONE', *, *, #261, .F. ) ;
#45 =( NAMED_UNIT ( * ) SI_UNIT ( $, .STERADIAN. ) SOLID_ANGLE_UNIT ( ) );
#46 = DIRECTION ( 'NONE',  ( 0.0000000000000000000, 0.0000000000000000000, 1.000000000000000000 ) ) ;
#47 = VERTEX_POINT ( 'NONE', #333 ) ;
#48 = ORIENTED_EDGE ( 'NONE', *, *, #142, .F. ) ;
#49 = ORIENTED_EDGE ( 'NONE', *, *, #235, .F. ) ;
#50 = DIRECTION ( 'NONE',  ( 0.0000000000000000000, 0.0000000000000000000, 1.000000000000000000 ) ) ;
#51 = DIRECTION ( 'NONE',  ( 0.0000000000000000000, -1.000000000000000000, 0.0000000000000000000 ) ) ;
#52 = AXIS2_PLACEMENT_3D ( 'NONE', #212, #115, #331 ) ;
#53 = SURFACE_STYLE_USAGE ( .BOTH. , #297 ) ;
#54 = ORIENTED_EDGE ( 'NONE', *, *, #165, .F. ) ;
#55 = CIRCLE ( 'NONE', #81, 66.69999999999998900 ) ;
#56 = CYLINDRICAL_SURFACE ( 'NONE', #292, 12.69999999999999600 ) ;
#57 = PRESENTATION_STYLE_ASSIGNMENT (( #316 ) ) ;
#58 = CARTESIAN_POINT ( 'NONE',  ( 276.5756136760592800, 1.555301434917138000E-015, -12.69999999999999600 ) ) ;
#59 = EDGE_CURVE ( 'NONE', #104, #200, #138, .T. ) ;
#60 = AXIS2_PLACEMENT_3D ( 'NONE', #116, #113, #278 ) ;
#61 = CARTESIAN_POINT ( 'NONE',  ( 272.9805218548558500, 0.0000000000000000000, 0.0000000000000000000 ) ) ;
#62 = CIRCLE ( 'NONE', #67, 12.69999999999997800 ) ;
#63 = FACE_OUTER_BOUND ( 'NONE', #243, .T. ) ;
#64 = DIRECTION ( 'NONE',  ( 0.0000000000000000000, 1.000000000000000000, 0.0000000000000000000 ) ) ;
#65 = CARTESIAN_POINT ( 'NONE',  ( 211.0958458084194300, 0.0000000000000000000, -3.185954776904472300E-015 ) ) ;
#66 = DIRECTION ( 'NONE',  ( 0.0000000000000000000, 1.000000000000000000, 0.0000000000000000000 ) ) ;
#67 = AXIS2_PLACEMENT_3D ( 'NONE', #277, #226, #183 ) ;
#68 = AXIS2_PLACEMENT_3D ( 'NONE', #85, #156, #122 ) ;
#69 = CARTESIAN_POINT ( 'NONE',  ( 272.9805218548558500, 0.0000000000000000000, 12.69999999999998900 ) ) ;
#70 = CARTESIAN_POINT ( 'NONE',  ( -0.5519199926577972300, 0.0000000000000000000, 12.69999999999997800 ) ) ;
#71 = AXIS2_PLACEMENT_3D ( 'NONE', #65, #225, #155 ) ;
#72 = FILL_AREA_STYLE_COLOUR ( '', #224 ) ;
#73 = AXIS2_PLACEMENT_3D ( 'NONE', #159, #284, #249 ) ;
#74 = ORIENTED_EDGE ( 'NONE', *, *, #165, .T. ) ;
#75 = EDGE_LOOP ( 'NONE', ( #192, #256, #172 ) ) ;
#76 =( LENGTH_UNIT ( ) NAMED_UNIT ( * ) SI_UNIT ( .MILLI., .METRE. ) );
#77 = CIRCLE ( 'NONE', #1, 91.59999999999998000 ) ;
#78 = APPLICATION_CONTEXT ( 'automotive_design' ) ;
#79 = DIRECTION ( 'NONE',  ( 0.0000000000000000000, 0.0000000000000000000, 1.000000000000000000 ) ) ;
#80 = FACE_OUTER_BOUND ( 'NONE', #132, .T. ) ;
#81 = AXIS2_PLACEMENT_3D ( 'NONE', #340, #51, #36 ) ;
#82 = CARTESIAN_POINT ( 'NONE',  ( 279.9958458084194000, 0.0000000000000000000, 1.210563360957158600E-014 ) ) ;
#83 = MECHANICAL_DESIGN_GEOMETRIC_PRESENTATION_REPRESENTATION (  '', ( #43 ), #296 ) ;
#84 = ORIENTED_EDGE ( 'NONE', *, *, #34, .F. ) ;
#85 = CARTESIAN_POINT ( 'NONE',  ( 82.29584580841941500, 0.0000000000000000000, 0.0000000000000000000 ) ) ;
#86 = EDGE_CURVE ( 'NONE', #298, #12, #193, .T. ) ;
#87 = EDGE_LOOP ( 'NONE', ( #302, #124, #54, #317 ) ) ;
#88 = CIRCLE ( 'NONE', #71, 66.69999999999998900 ) ;
#89 = CYLINDRICAL_SURFACE ( 'NONE', #315, 12.69999999999999600 ) ;
#90 = DIRECTION ( 'NONE',  ( 0.0000000000000000000, 1.000000000000000000, 0.0000000000000000000 ) ) ;
#91 = CIRCLE ( 'NONE', #68, 197.6999999999999900 ) ;
#92 = ORIENTED_EDGE ( 'NONE', *, *, #211, .T. ) ;
#93 =( NAMED_UNIT ( * ) PLANE_ANGLE_UNIT ( ) SI_UNIT ( $, .RADIAN. ) );
#94 = ORIENTED_EDGE ( 'NONE', *, *, #237, .T. ) ;
#95 = DIRECTION ( 'NONE',  ( 0.0000000000000000000, 0.0000000000000000000, 1.000000000000000000 ) ) ;
#96 = CARTESIAN_POINT ( 'NONE',  ( 363.6958458084194500, 0.0000000000000000000, -3.750986378649689900E-015 ) ) ;
#97 = VERTEX_POINT ( 'NONE', #69 ) ;
#98 = ADVANCED_FACE ( 'NONE', ( #332 ), #271, .T. ) ;
#99 = CIRCLE ( 'NONE', #251, 12.69999999999997800 ) ;
#100 = AXIS2_PLACEMENT_3D ( 'NONE', #61, #323, #219 ) ;
#101 = CARTESIAN_POINT ( 'NONE',  ( 211.0958458084194300, 0.0000000000000000000, -3.185954776904472300E-015 ) ) ;
#102 = AXIS2_PLACEMENT_3D ( 'NONE', #343, #16, #347 ) ;
#103 = ORIENTED_EDGE ( 'NONE', *, *, #126, .F. ) ;
#104 = VERTEX_POINT ( 'NONE', #229 ) ;
#105 = CARTESIAN_POINT ( 'NONE',  ( 276.5756136760592800, 0.0000000000000000000, 0.0000000000000000000 ) ) ;
#106 = FILL_AREA_STYLE_COLOUR ( '', #346 ) ;
#107 = EDGE_LOOP ( 'NONE', ( #114, #306, #247, #49 ) ) ;
#108 = FACE_OUTER_BOUND ( 'NONE', #187, .T. ) ;
#109 =( LENGTH_UNIT ( ) NAMED_UNIT ( * ) SI_UNIT ( .MILLI., .METRE. ) );
#110 = VERTEX_POINT ( 'NONE', #82 ) ;
#111 = AXIS2_PLACEMENT_3D ( 'NONE', #101, #173, #321 ) ;
#112 = PRESENTATION_STYLE_ASSIGNMENT (( #145 ) ) ;
#113 = DIRECTION ( 'NONE',  ( -0.0000000000000000000, 1.000000000000000000, 1.224646799147353200E-016 ) ) ;
#114 = ORIENTED_EDGE ( 'NONE', *, *, #86, .F. ) ;
#115 = DIRECTION ( 'NONE',  ( 0.0000000000000000000, 1.000000000000000000, 0.0000000000000000000 ) ) ;
#116 = CARTESIAN_POINT ( 'NONE',  ( 211.0958458084194300, 0.0000000000000000000, -3.185954776904472300E-015 ) ) ;
#117 = AXIS2_PLACEMENT_3D ( 'NONE', #20, #64, #171 ) ;
#118 = ADVANCED_FACE ( 'NONE', ( #22 ), #262, .T. ) ;
#119 = STYLED_ITEM ( 'NONE', ( #57 ), #334 ) ;
#120 = DIRECTION ( 'NONE',  ( 0.0000000000000000000, 1.000000000000000000, 0.0000000000000000000 ) ) ;
#121 = UNCERTAINTY_MEASURE_WITH_UNIT (LENGTH_MEASURE( 1.000000000000000100E-005 ), #109, 'distance_accuracy_value', 'NONE');
#122 = DIRECTION ( 'NONE',  ( 0.0000000000000000000, 0.0000000000000000000, -1.000000000000000000 ) ) ;
#123 = DIRECTION ( 'NONE',  ( 0.0000000000000000000, 1.000000000000000000, 0.0000000000000000000 ) ) ;
#124 = ORIENTED_EDGE ( 'NONE', *, *, #59, .T. ) ;
#125 = DIRECTION ( 'NONE',  ( 0.0000000000000000000, 0.0000000000000000000, 1.000000000000000000 ) ) ;
#126 = EDGE_CURVE ( 'NONE', #97, #12, #204, .T. ) ;
#127 = ADVANCED_FACE ( 'NONE', ( #341 ), #7, .T. ) ;
#128 =( NAMED_UNIT ( * ) SI_UNIT ( $, .STERADIAN. ) SOLID_ANGLE_UNIT ( ) );
#129 = ORIENTED_EDGE ( 'NONE', *, *, #59, .F. ) ;
#130 = MECHANICAL_DESIGN_GEOMETRIC_PRESENTATION_REPRESENTATION (  '', ( #163 ), #335 ) ;
#131 = MECHANICAL_DESIGN_GEOMETRIC_PRESENTATION_REPRESENTATION (  '', ( #119 ), #189 ) ;
#132 = EDGE_LOOP ( 'NONE', ( #265, #149, #74 ) ) ;
#133 = CARTESIAN_POINT ( 'NONE',  ( 211.0958458084194300, 0.0000000000000000000, -3.185954776904472300E-015 ) ) ;
#134 = ORIENTED_EDGE ( 'NONE', *, *, #279, .T. ) ;
#135 = DIRECTION ( 'NONE',  ( 0.0000000000000000000, 0.0000000000000000000, 1.000000000000000000 ) ) ;
#136 = CARTESIAN_POINT ( 'NONE',  ( -0.5519199926577972300, 0.0000000000000000000, 0.0000000000000000000 ) ) ;
#137 = FILL_AREA_STYLE ('',( #72 ) ) ;
#138 = LINE ( 'NONE', #19, #344 ) ;
#139 = AXIS2_PLACEMENT_3D ( 'NONE', #287, #158, #50 ) ;
#140 = APPLICATION_CONTEXT ( 'automotive_design' ) ;
#141 = ADVANCED_FACE ( 'NONE', ( #80 ), #289, .F. ) ;
#142 = EDGE_CURVE ( 'NONE', #47, #310, #88, .T. ) ;
#143 = SURFACE_SIDE_STYLE ('',( #241 ) ) ;
#144 = LINE ( 'NONE', #8, #167 ) ;
#145 = SURFACE_STYLE_USAGE ( .BOTH. , #207 ) ;
#146 = CARTESIAN_POINT ( 'NONE',  ( 279.5875080752268200, 0.0000000000000000000, 12.69999999999997800 ) ) ;
#147 = EDGE_CURVE ( 'NONE', #310, #97, #144, .T. ) ;
#148 = EDGE_LOOP ( 'NONE', ( #29, #293, #10 ) ) ;
#149 = ORIENTED_EDGE ( 'NONE', *, *, #34, .T. ) ;
#150 = PRESENTATION_STYLE_ASSIGNMENT (( #53 ) ) ;
#151 = CARTESIAN_POINT ( 'NONE',  ( 276.5756136760592800, 0.0000000000000000000, 12.69999999999999900 ) ) ;
#152 = DIRECTION ( 'NONE',  ( 0.0000000000000000000, 0.0000000000000000000, -1.000000000000000000 ) ) ;
#153 = CIRCLE ( 'NONE', #179, 12.69999999999997800 ) ;
#154 = DIRECTION ( 'NONE',  ( 0.0000000000000000000, 0.0000000000000000000, 1.000000000000000000 ) ) ;
#155 = DIRECTION ( 'NONE',  ( 0.0000000000000000000, 0.0000000000000000000, -1.000000000000000000 ) ) ;
#156 = DIRECTION ( 'NONE',  ( 0.0000000000000000000, -1.000000000000000000, 0.0000000000000000000 ) ) ;
#157 = AXIS2_PLACEMENT_3D ( 'NONE', #32, #178, #154 ) ;
#158 = DIRECTION ( 'NONE',  ( 0.0000000000000000000, 1.000000000000000000, 0.0000000000000000000 ) ) ;
#159 = CARTESIAN_POINT ( 'NONE',  ( 272.9805218548558500, 0.0000000000000000000, 0.0000000000000000000 ) ) ;
#160 = ORIENTED_EDGE ( 'NONE', *, *, #28, .T. ) ;
#161 = FILL_AREA_STYLE ('',( #337 ) ) ;
#162 = SURFACE_STYLE_FILL_AREA ( #137 ) ;
#163 = STYLED_ITEM ( 'NONE', ( #150 ), #26 ) ;
#164 = FACE_OUTER_BOUND ( 'NONE', #5, .T. ) ;
#165 = EDGE_CURVE ( 'NONE', #33, #200, #99, .T. ) ;
#166 = ORIENTED_EDGE ( 'NONE', *, *, #261, .T. ) ;
#167 = VECTOR ( 'NONE', #272, 1000.000000000000000 ) ;
#168 = DIRECTION ( 'NONE',  ( 1.000000000000000000, 0.0000000000000000000, 0.0000000000000000000 ) ) ;
#169 = FILL_AREA_STYLE ('',( #106 ) ) ;
#170 = DIRECTION ( 'NONE',  ( -1.000000000000000000, -0.0000000000000000000, -0.0000000000000000000 ) ) ;
#171 = DIRECTION ( 'NONE',  ( 0.0000000000000000000, 0.0000000000000000000, 1.000000000000000000 ) ) ;
#172 = ORIENTED_EDGE ( 'NONE', *, *, #214, .F. ) ;
#173 = DIRECTION ( 'NONE',  ( -0.0000000000000000000, 1.000000000000000000, 1.224646799147353200E-016 ) ) ;
#174 = CIRCLE ( 'NONE', #273, 12.69999999999999600 ) ;
#175 = ADVANCED_FACE ( 'NONE', ( #230 ), #14, .T. ) ;
#176 = CARTESIAN_POINT ( 'NONE',  ( 279.5875080752268200, 0.0000000000000000000, 0.0000000000000000000 ) ) ;
#177 = PRESENTATION_LAYER_ASSIGNMENT (  '', '', ( #119 ) ) ;
#178 = DIRECTION ( 'NONE',  ( -1.000000000000000000, -0.0000000000000000000, -0.0000000000000000000 ) ) ;
#179 = AXIS2_PLACEMENT_3D ( 'NONE', #176, #345, #227 ) ;
#180 = ADVANCED_FACE ( 'NONE', ( #108 ), #281, .T. ) ;
#181 = EDGE_LOOP ( 'NONE', ( #318, #4, #103, #40 ) ) ;
#182 = ADVANCED_FACE ( 'NONE', ( #38 ), #215, .T. ) ;
#183 = DIRECTION ( 'NONE',  ( 0.0000000000000000000, 0.0000000000000000000, 1.000000000000000000 ) ) ;
#184 = DIRECTION ( 'NONE',  ( 0.0000000000000000000, 0.0000000000000000000, 1.000000000000000000 ) ) ;
#185 =( NAMED_UNIT ( * ) SI_UNIT ( $, .STERADIAN. ) SOLID_ANGLE_UNIT ( ) );
#186 = PRODUCT ( '145060', '145060', '', ( #240 ) ) ;
#187 = EDGE_LOOP ( 'NONE', ( #330, #166, #228 ) ) ;
#188 = DIRECTION ( 'NONE',  ( -1.000000000000000000, -0.0000000000000000000, -0.0000000000000000000 ) ) ;
#189 =( GEOMETRIC_REPRESENTATION_CONTEXT ( 3 ) GLOBAL_UNCERTAINTY_ASSIGNED_CONTEXT ( ( #121 ) ) GLOBAL_UNIT_ASSIGNED_CONTEXT ( ( #109, #258, #128 ) ) REPRESENTATION_CONTEXT ( 'NONE', 'WORKASPACE' ) );
#190 = CARTESIAN_POINT ( 'NONE',  ( 272.0958458084194800, 0.0000000000000000000, 1.857895961445185700E-015 ) ) ;
#191 = UNCERTAINTY_MEASURE_WITH_UNIT (LENGTH_MEASURE( 1.000000000000000100E-005 ), #27, 'distance_accuracy_value', 'NONE');
#192 = ORIENTED_EDGE ( 'NONE', *, *, #320, .F. ) ;
#193 = LINE ( 'NONE', #197, #295 ) ;
#194 = PRODUCT_RELATED_PRODUCT_CATEGORY ( 'part', '', ( #186 ) ) ;
#195 = VERTEX_POINT ( 'NONE', #190 ) ;
#196 = DIRECTION ( 'NONE',  ( -1.000000000000000000, -0.0000000000000000000, -0.0000000000000000000 ) ) ;
#197 = CARTESIAN_POINT ( 'NONE',  ( 235.8074506907544200, 1.555301434917138000E-015, -12.69999999999999600 ) ) ;
#198 = EDGE_CURVE ( 'NONE', #310, #298, #174, .T. ) ;
#199 = AXIS2_PLACEMENT_3D ( 'NONE', #96, #257, #152 ) ;
#200 = VERTEX_POINT ( 'NONE', #17 ) ;
#201 = CARTESIAN_POINT ( 'NONE',  ( 211.0958458084194300, 0.0000000000000000000, -3.185954776904472300E-015 ) ) ;
#202 = EDGE_CURVE ( 'NONE', #97, #195, #312, .T. ) ;
#203 = DIRECTION ( 'NONE',  ( 0.0000000000000000000, 0.0000000000000000000, 1.000000000000000000 ) ) ;
#204 = CIRCLE ( 'NONE', #100, 12.69999999999999600 ) ;
#205 = AXIS2_PLACEMENT_3D ( 'NONE', #201, #120, #282 ) ;
#206 =( GEOMETRIC_REPRESENTATION_CONTEXT ( 3 ) GLOBAL_UNCERTAINTY_ASSIGNED_CONTEXT ( ( #253 ) ) GLOBAL_UNIT_ASSIGNED_CONTEXT ( ( #76, #93, #238 ) ) REPRESENTATION_CONTEXT ( 'NONE', 'WORKASPACE' ) );
#207 = SURFACE_SIDE_STYLE ('',( #305 ) ) ;
#208 = DIRECTION ( 'NONE',  ( 0.0000000000000000000, 0.0000000000000000000, 1.000000000000000000 ) ) ;
#209 = ORIENTED_EDGE ( 'NONE', *, *, #126, .T. ) ;
#210 = CARTESIAN_POINT ( 'NONE',  ( 276.5756136760592800, 0.0000000000000000000, 12.69999999999999600 ) ) ;
#211 = EDGE_CURVE ( 'NONE', #234, #200, #30, .T. ) ;
#212 = CARTESIAN_POINT ( 'NONE',  ( 211.0958458084194300, 0.0000000000000000000, -3.185954776904472300E-015 ) ) ;
#213 = DIRECTION ( 'NONE',  ( -1.000000000000000000, -0.0000000000000000000, -0.0000000000000000000 ) ) ;
#214 = EDGE_CURVE ( 'NONE', #298, #310, #266, .T. ) ;
#215 = CYLINDRICAL_SURFACE ( 'NONE', #220, 12.69999999999997800 ) ;
#216 = DIRECTION ( 'NONE',  ( 0.0000000000000000000, -1.224646799147353200E-016, 1.000000000000000000 ) ) ;
#217 = ADVANCED_FACE ( 'NONE', ( #264 ), #89, .T. ) ;
#218 = APPLICATION_PROTOCOL_DEFINITION ( 'draft international standard', 'automotive_design', 1998, #140 ) ;
#219 = DIRECTION ( 'NONE',  ( 0.0000000000000000000, 0.0000000000000000000, 1.000000000000000000 ) ) ;
#220 = AXIS2_PLACEMENT_3D ( 'NONE', #136, #23, #125 ) ;
#221 = ORIENTED_EDGE ( 'NONE', *, *, #202, .F. ) ;
#222 = APPLICATION_PROTOCOL_DEFINITION ( 'draft international standard', 'automotive_design', 1998, #78 ) ;
#223 = ADVANCED_FACE ( 'NONE', ( #164 ), #246, .F. ) ;
#224 = COLOUR_RGB ( '',1.000000000000000000, 1.000000000000000000, 1.000000000000000000 ) ;
#225 = DIRECTION ( 'NONE',  ( 0.0000000000000000000, -1.000000000000000000, 0.0000000000000000000 ) ) ;
#226 = DIRECTION ( 'NONE',  ( -1.000000000000000000, -0.0000000000000000000, -0.0000000000000000000 ) ) ;
#227 = DIRECTION ( 'NONE',  ( 0.0000000000000000000, 0.0000000000000000000, 1.000000000000000000 ) ) ;
#228 = ORIENTED_EDGE ( 'NONE', *, *, #326, .F. ) ;
#229 = CARTESIAN_POINT ( 'NONE',  ( 279.5875080752268200, 1.555301434917136100E-015, -12.69999999999997800 ) ) ;
#230 = FACE_OUTER_BOUND ( 'NONE', #239, .T. ) ;
#231 = PRODUCT_DEFINITION ( 'Î´Öª', '', #245, #324 ) ;
#232 = ADVANCED_FACE ( 'NONE', ( #236 ), #56, .T. ) ;
#233 = DIRECTION ( 'NONE',  ( -1.000000000000000000, -0.0000000000000000000, -0.0000000000000000000 ) ) ;
#234 = VERTEX_POINT ( 'NONE', #303 ) ;
#235 = EDGE_CURVE ( 'NONE', #12, #97, #18, .T. ) ;
#236 = FACE_OUTER_BOUND ( 'NONE', #107, .T. ) ;
#237 = EDGE_CURVE ( 'NONE', #110, #104, #300, .T. ) ;
#238 =( NAMED_UNIT ( * ) SI_UNIT ( $, .STERADIAN. ) SOLID_ANGLE_UNIT ( ) );
#239 = EDGE_LOOP ( 'NONE', ( #209, #255, #221 ) ) ;
#240 = PRODUCT_CONTEXT ( 'NONE', #140, 'mechanical' ) ;
#241 = SURFACE_STYLE_FILL_AREA ( #161 ) ;
#242 = AXIS2_PLACEMENT_3D ( 'NONE', #259, #66, #208 ) ;
#243 = EDGE_LOOP ( 'NONE', ( #44, #94, #269 ) ) ;
#244 = CARTESIAN_POINT ( 'NONE',  ( 82.29584580841941500, 0.0000000000000000000, 0.0000000000000000000 ) ) ;
#245 = PRODUCT_DEFINITION_FORMATION_WITH_SPECIFIED_SOURCE ( 'ÈÎºÎ', '', #186, .NOT_KNOWN. ) ;
#246 = SPHERICAL_SURFACE ( 'NONE', #52, 66.69999999999998900 ) ;
#247 = ORIENTED_EDGE ( 'NONE', *, *, #147, .T. ) ;
#248 = DIRECTION ( 'NONE',  ( -1.000000000000000000, -0.0000000000000000000, -0.0000000000000000000 ) ) ;
#249 = DIRECTION ( 'NONE',  ( 0.0000000000000000000, 0.0000000000000000000, 1.000000000000000000 ) ) ;
#250 = EDGE_CURVE ( 'NONE', #12, #195, #77, .T. ) ;
#251 = AXIS2_PLACEMENT_3D ( 'NONE', #275, #196, #95 ) ;
#252 = DIRECTION ( 'NONE',  ( 0.0000000000000000000, 1.000000000000000000, 0.0000000000000000000 ) ) ;
#253 = UNCERTAINTY_MEASURE_WITH_UNIT (LENGTH_MEASURE( 1.000000000000000100E-005 ), #76, 'distance_accuracy_value', 'NONE');
#254 =( NAMED_UNIT ( * ) PLANE_ANGLE_UNIT ( ) SI_UNIT ( $, .RADIAN. ) );
#255 = ORIENTED_EDGE ( 'NONE', *, *, #250, .T. ) ;
#256 = ORIENTED_EDGE ( 'NONE', *, *, #142, .T. ) ;
#257 = DIRECTION ( 'NONE',  ( 0.0000000000000000000, -1.000000000000000000, 0.0000000000000000000 ) ) ;
#258 =( NAMED_UNIT ( * ) PLANE_ANGLE_UNIT ( ) SI_UNIT ( $, .RADIAN. ) );
#259 = CARTESIAN_POINT ( 'NONE',  ( 82.29584580841941500, 0.0000000000000000000, 0.0000000000000000000 ) ) ;
#260 = CLOSED_SHELL ( 'NONE', ( #2, #217, #175, #118, #232, #127 ) ) ;
#261 = EDGE_CURVE ( 'NONE', #110, #325, #91, .T. ) ;
#262 = SPHERICAL_SURFACE ( 'NONE', #117, 91.59999999999998000 ) ;
#263 = AXIS2_PLACEMENT_3D ( 'NONE', #37, #252, #184 ) ;
#264 = FACE_OUTER_BOUND ( 'NONE', #181, .T. ) ;
#265 = ORIENTED_EDGE ( 'NONE', *, *, #211, .F. ) ;
#266 = CIRCLE ( 'NONE', #102, 12.69999999999999600 ) ;
#267 = AXIS2_PLACEMENT_3D ( 'NONE', #133, #123, #46 ) ;
#268 = ADVANCED_FACE ( 'NONE', ( #63 ), #283, .T. ) ;
#269 = ORIENTED_EDGE ( 'NONE', *, *, #291, .F. ) ;
#270 =( NAMED_UNIT ( * ) PLANE_ANGLE_UNIT ( ) SI_UNIT ( $, .RADIAN. ) );
#271 = CYLINDRICAL_SURFACE ( 'NONE', #313, 12.69999999999997800 ) ;
#272 = DIRECTION ( 'NONE',  ( -1.000000000000000000, -0.0000000000000000000, -0.0000000000000000000 ) ) ;
#273 = AXIS2_PLACEMENT_3D ( 'NONE', #105, #307, #311 ) ;
#274 = CARTESIAN_POINT ( 'NONE',  ( 272.9805218548558500, 1.555301434917137400E-015, -12.69999999999999200 ) ) ;
#275 = CARTESIAN_POINT ( 'NONE',  ( 276.5756136760592800, 0.0000000000000000000, 0.0000000000000000000 ) ) ;
#276 = DIRECTION ( 'NONE',  ( 0.0000000000000000000, 0.0000000000000000000, 1.000000000000000000 ) ) ;
#277 = CARTESIAN_POINT ( 'NONE',  ( 276.5756136760592800, 0.0000000000000000000, 0.0000000000000000000 ) ) ;
#278 = DIRECTION ( 'NONE',  ( 0.0000000000000000000, -1.224646799147353200E-016, 1.000000000000000000 ) ) ;
#279 = EDGE_CURVE ( 'NONE', #325, #33, #15, .T. ) ;
#280 = AXIS2_PLACEMENT_3D ( 'NONE', #42, #79, #168 ) ;
#281 = SPHERICAL_SURFACE ( 'NONE', #242, 197.6999999999999900 ) ;
#282 = DIRECTION ( 'NONE',  ( 0.0000000000000000000, 0.0000000000000000000, 1.000000000000000000 ) ) ;
#283 = SPHERICAL_SURFACE ( 'NONE', #139, 197.6999999999999900 ) ;
#284 = DIRECTION ( 'NONE',  ( -1.000000000000000000, -0.0000000000000000000, -0.0000000000000000000 ) ) ;
#285 = ORIENTED_EDGE ( 'NONE', *, *, #28, .F. ) ;
#286 = UNCERTAINTY_MEASURE_WITH_UNIT (LENGTH_MEASURE( 1.000000000000000100E-005 ), #314, 'distance_accuracy_value', 'NONE');
#287 = CARTESIAN_POINT ( 'NONE',  ( 82.29584580841941500, 0.0000000000000000000, 0.0000000000000000000 ) ) ;
#288 = ORIENTED_EDGE ( 'NONE', *, *, #326, .T. ) ;
#289 = SPHERICAL_SURFACE ( 'NONE', #205, 66.69999999999998900 ) ;
#290 = VECTOR ( 'NONE', #170, 1000.000000000000000 ) ;
#291 = EDGE_CURVE ( 'NONE', #325, #104, #153, .T. ) ;
#292 = AXIS2_PLACEMENT_3D ( 'NONE', #3, #213, #203 ) ;
#293 = ORIENTED_EDGE ( 'NONE', *, *, #235, .T. ) ;
#294 = EDGE_LOOP ( 'NONE', ( #129, #288, #134, #285 ) ) ;
#295 = VECTOR ( 'NONE', #188, 1000.000000000000000 ) ;
#296 =( GEOMETRIC_REPRESENTATION_CONTEXT ( 3 ) GLOBAL_UNCERTAINTY_ASSIGNED_CONTEXT ( ( #286 ) ) GLOBAL_UNIT_ASSIGNED_CONTEXT ( ( #314, #254, #45 ) ) REPRESENTATION_CONTEXT ( 'NONE', 'WORKASPACE' ) );
#297 = SURFACE_SIDE_STYLE ('',( #162 ) ) ;
#298 = VERTEX_POINT ( 'NONE', #58 ) ;
#299 = CIRCLE ( 'NONE', #60, 66.69999999999998900 ) ;
#300 = CIRCLE ( 'NONE', #24, 197.6999999999999900 ) ;
#301 = CARTESIAN_POINT ( 'NONE',  ( 363.6958458084194500, 0.0000000000000000000, -3.750986378649689900E-015 ) ) ;
#302 = ORIENTED_EDGE ( 'NONE', *, *, #291, .T. ) ;
#303 = CARTESIAN_POINT ( 'NONE',  ( 277.7958458084194100, 0.0000000000000000000, 8.982422982519500600E-016 ) ) ;
#304 = CARTESIAN_POINT ( 'NONE',  ( -0.5519199926577972300, 0.0000000000000000000, 0.0000000000000000000 ) ) ;
#305 = SURFACE_STYLE_FILL_AREA ( #169 ) ;
#306 = ORIENTED_EDGE ( 'NONE', *, *, #214, .T. ) ;
#307 = DIRECTION ( 'NONE',  ( -1.000000000000000000, -0.0000000000000000000, -0.0000000000000000000 ) ) ;
#308 = DIRECTION ( 'NONE',  ( 0.0000000000000000000, -1.224646799147353000E-016, 1.000000000000000000 ) ) ;
#309 = ADVANCED_BREP_SHAPE_REPRESENTATION ( '145060', ( #334, #26, #280 ), #206 ) ;
#310 = VERTEX_POINT ( 'NONE', #210 ) ;
#311 = DIRECTION ( 'NONE',  ( 0.0000000000000000000, 0.0000000000000000000, 1.000000000000000000 ) ) ;
#312 = CIRCLE ( 'NONE', #199, 91.59999999999998000 ) ;
#313 = AXIS2_PLACEMENT_3D ( 'NONE', #304, #248, #135 ) ;
#314 =( LENGTH_UNIT ( ) NAMED_UNIT ( * ) SI_UNIT ( .MILLI., .METRE. ) );
#315 = AXIS2_PLACEMENT_3D ( 'NONE', #327, #233, #276 ) ;
#316 = SURFACE_STYLE_USAGE ( .BOTH. , #143 ) ;
#317 = ORIENTED_EDGE ( 'NONE', *, *, #279, .F. ) ;
#318 = ORIENTED_EDGE ( 'NONE', *, *, #198, .T. ) ;
#319 = CLOSED_SHELL ( 'NONE', ( #268, #98, #223, #141, #182, #180 ) ) ;
#320 = EDGE_CURVE ( 'NONE', #47, #298, #299, .T. ) ;
#321 = DIRECTION ( 'NONE',  ( 0.0000000000000000000, -1.224646799147353200E-016, 1.000000000000000000 ) ) ;
#322 = SHAPE_DEFINITION_REPRESENTATION ( #342, #309 ) ;
#323 = DIRECTION ( 'NONE',  ( -1.000000000000000000, -0.0000000000000000000, -0.0000000000000000000 ) ) ;
#324 = PRODUCT_DEFINITION_CONTEXT ( 'detailed design', #78, 'design' ) ;
#325 = VERTEX_POINT ( 'NONE', #146 ) ;
#326 = EDGE_CURVE ( 'NONE', #104, #325, #328, .T. ) ;
#327 = CARTESIAN_POINT ( 'NONE',  ( 235.8074506907544200, 0.0000000000000000000, 0.0000000000000000000 ) ) ;
#328 = CIRCLE ( 'NONE', #157, 12.69999999999997800 ) ;
#329 = ORIENTED_EDGE ( 'NONE', *, *, #198, .F. ) ;
#330 = ORIENTED_EDGE ( 'NONE', *, *, #237, .F. ) ;
#331 = DIRECTION ( 'NONE',  ( 0.0000000000000000000, 0.0000000000000000000, 1.000000000000000000 ) ) ;
#332 = FACE_OUTER_BOUND ( 'NONE', #87, .T. ) ;
#333 = CARTESIAN_POINT ( 'NONE',  ( 277.7958458084194100, 0.0000000000000000000, 8.982422982519500600E-016 ) ) ;
#334 = MANIFOLD_SOLID_BREP ( 'Ðý×ª1', #260 ) ;
#335 =( GEOMETRIC_REPRESENTATION_CONTEXT ( 3 ) GLOBAL_UNCERTAINTY_ASSIGNED_CONTEXT ( ( #191 ) ) GLOBAL_UNIT_ASSIGNED_CONTEXT ( ( #27, #270, #185 ) ) REPRESENTATION_CONTEXT ( 'NONE', 'WORKASPACE' ) );
#336 = SPHERICAL_SURFACE ( 'NONE', #267, 66.69999999999998900 ) ;
#337 = FILL_AREA_STYLE_COLOUR ( '', #41 ) ;
#338 = AXIS2_PLACEMENT_3D ( 'NONE', #13, #90, #31 ) ;
#339 = EDGE_LOOP ( 'NONE', ( #48, #21, #329 ) ) ;
#340 = CARTESIAN_POINT ( 'NONE',  ( 211.0958458084194300, 0.0000000000000000000, -3.185954776904472300E-015 ) ) ;
#341 = FACE_OUTER_BOUND ( 'NONE', #75, .T. ) ;
#342 = PRODUCT_DEFINITION_SHAPE ( 'NONE', 'NONE',  #231 ) ;
#343 = CARTESIAN_POINT ( 'NONE',  ( 276.5756136760592800, 0.0000000000000000000, 0.0000000000000000000 ) ) ;
#344 = VECTOR ( 'NONE', #9, 1000.000000000000000 ) ;
#345 = DIRECTION ( 'NONE',  ( -1.000000000000000000, -0.0000000000000000000, -0.0000000000000000000 ) ) ;
#346 = COLOUR_RGB ( '',1.000000000000000000, 1.000000000000000000, 1.000000000000000000 ) ;
#347 = DIRECTION ( 'NONE',  ( 0.0000000000000000000, 0.0000000000000000000, 1.000000000000000000 ) ) ;
ENDSEC;
END-ISO-10303-21;
