ISO-10303-21;
HEADER;
FILE_DESCRIPTION (( 'STEP AP214' ),
    '1' );
FILE_NAME ('145044.STEP',
    '2019-05-12T06:10:41',
    ( 'user' ),
    ( 'Î¢ÈíÖÐ¹ú' ),
    'SwSTEP 2.0',
    'SolidWorks 2016',
    '' );
FILE_SCHEMA (( 'AUTOMOTIVE_DESIGN' ));
ENDSEC;

DATA;
#1 =( NAMED_UNIT ( * ) SI_UNIT ( $, .STERADIAN. ) SOLID_ANGLE_UNIT ( ) );
#2 = DIRECTION ( 'NONE',  ( 0.0000000000000000000, 0.0000000000000000000, -1.000000000000000000 ) ) ;
#3 = ORIENTED_EDGE ( 'NONE', *, *, #76, .T. ) ;
#4 = AXIS2_PLACEMENT_3D ( 'NONE', #146, #273, #284 ) ;
#5 = DIRECTION ( 'NONE',  ( 0.0000000000000000000, 0.0000000000000000000, 1.000000000000000000 ) ) ;
#6 = DIRECTION ( 'NONE',  ( 0.0000000000000000000, 0.0000000000000000000, 1.000000000000000000 ) ) ;
#7 = SURFACE_STYLE_FILL_AREA ( #30 ) ;
#8 = DIRECTION ( 'NONE',  ( 0.0000000000000000000, 1.000000000000000000, 0.0000000000000000000 ) ) ;
#9 = EDGE_CURVE ( 'NONE', #174, #125, #41, .T. ) ;
#10 = DIRECTION ( 'NONE',  ( 0.0000000000000000000, 0.0000000000000000000, 1.000000000000000000 ) ) ;
#11 = EDGE_CURVE ( 'NONE', #208, #80, #317, .T. ) ;
#12 = LINE ( 'NONE', #52, #61 ) ;
#13 = ORIENTED_EDGE ( 'NONE', *, *, #71, .F. ) ;
#14 = DIRECTION ( 'NONE',  ( -1.000000000000000000, -0.0000000000000000000, -0.0000000000000000000 ) ) ;
#15 = FACE_OUTER_BOUND ( 'NONE', #197, .T. ) ;
#16 = CARTESIAN_POINT ( 'NONE',  ( 81.62166897357475600, 0.0000000000000000000, 1.294659856654607500E-014 ) ) ;
#17 = STYLED_ITEM ( 'NONE', ( #37 ), #337 ) ;
#18 = EDGE_CURVE ( 'NONE', #147, #138, #165, .T. ) ;
#19 = EDGE_LOOP ( 'NONE', ( #253, #302, #168 ) ) ;
#20 = DIRECTION ( 'NONE',  ( -1.000000000000000000, -0.0000000000000000000, -0.0000000000000000000 ) ) ;
#21 = VERTEX_POINT ( 'NONE', #16 ) ;
#22 = ADVANCED_FACE ( 'NONE', ( #121 ), #188, .T. ) ;
#23 = CARTESIAN_POINT ( 'NONE',  ( 76.72166897357475100, 0.0000000000000000000, 5.807038297292418800E-015 ) ) ;
#24 = EDGE_CURVE ( 'NONE', #21, #174, #265, .T. ) ;
#25 = CARTESIAN_POINT ( 'NONE',  ( 81.25184489170636900, 0.0000000000000000000, 0.0000000000000000000 ) ) ;
#26 = UNCERTAINTY_MEASURE_WITH_UNIT (LENGTH_MEASURE( 1.000000000000000100E-005 ), #132, 'distance_accuracy_value', 'NONE');
#27 = CARTESIAN_POINT ( 'NONE',  ( 78.81111791695470000, 0.0000000000000000000, 0.0000000000000000000 ) ) ;
#28 = ORIENTED_EDGE ( 'NONE', *, *, #49, .F. ) ;
#29 = DIRECTION ( 'NONE',  ( 0.0000000000000000000, -1.000000000000000000, 0.0000000000000000000 ) ) ;
#30 = FILL_AREA_STYLE ('',( #191 ) ) ;
#31 = AXIS2_PLACEMENT_3D ( 'NONE', #25, #278, #107 ) ;
#32 = EDGE_CURVE ( 'NONE', #91, #208, #176, .T. ) ;
#33 = ORIENTED_EDGE ( 'NONE', *, *, #326, .T. ) ;
#34 = DIRECTION ( 'NONE',  ( 0.0000000000000000000, 0.0000000000000000000, 1.000000000000000000 ) ) ;
#35 = CIRCLE ( 'NONE', #31, 12.49999999999999300 ) ;
#36 = CIRCLE ( 'NONE', #130, 12.49999999999999800 ) ;
#37 = PRESENTATION_STYLE_ASSIGNMENT (( #282 ) ) ;
#38 = ORIENTED_EDGE ( 'NONE', *, *, #9, .F. ) ;
#39 = EDGE_CURVE ( 'NONE', #174, #147, #35, .T. ) ;
#40 = DIRECTION ( 'NONE',  ( 0.0000000000000000000, -1.224646799147353200E-016, 1.000000000000000000 ) ) ;
#41 = LINE ( 'NONE', #170, #112 ) ;
#42 = DIRECTION ( 'NONE',  ( 0.0000000000000000000, 0.0000000000000000000, 1.000000000000000000 ) ) ;
#43 = UNCERTAINTY_MEASURE_WITH_UNIT (LENGTH_MEASURE( 1.000000000000000100E-005 ), #299, 'distance_accuracy_value', 'NONE');
#44 = LINE ( 'NONE', #110, #171 ) ;
#45 = CARTESIAN_POINT ( 'NONE',  ( 14.87966897357473400, 0.0000000000000000000, 1.355252715606880500E-017 ) ) ;
#46 = FACE_OUTER_BOUND ( 'NONE', #196, .T. ) ;
#47 = PRESENTATION_LAYER_ASSIGNMENT (  '', '', ( #17 ) ) ;
#48 = DIRECTION ( 'NONE',  ( 0.0000000000000000000, 0.0000000000000000000, 1.000000000000000000 ) ) ;
#49 = EDGE_CURVE ( 'NONE', #125, #138, #96, .T. ) ;
#50 = EDGE_LOOP ( 'NONE', ( #3, #129, #247 ) ) ;
#51 = EDGE_CURVE ( 'NONE', #91, #80, #239, .T. ) ;
#52 = CARTESIAN_POINT ( 'NONE',  ( -9.702612178336682500, 0.0000000000000000000, 12.50000000000000000 ) ) ;
#53 = ORIENTED_EDGE ( 'NONE', *, *, #234, .F. ) ;
#54 = AXIS2_PLACEMENT_3D ( 'NONE', #84, #263, #320 ) ;
#55 = CIRCLE ( 'NONE', #136, 12.49999999999999300 ) ;
#56 = CARTESIAN_POINT ( 'NONE',  ( 175.6586689735747500, 0.0000000000000000000, -2.511057210696642600E-016 ) ) ;
#57 = PRODUCT ( '145044', '145044', '', ( #175 ) ) ;
#58 = CARTESIAN_POINT ( 'NONE',  ( -129.8123310264252600, 0.0000000000000000000, 0.0000000000000000000 ) ) ;
#59 =( NAMED_UNIT ( * ) PLANE_ANGLE_UNIT ( ) SI_UNIT ( $, .RADIAN. ) );
#60 = DIRECTION ( 'NONE',  ( 0.0000000000000000000, 0.0000000000000000000, 1.000000000000000000 ) ) ;
#61 = VECTOR ( 'NONE', #215, 1000.000000000000000 ) ;
#62 = ORIENTED_EDGE ( 'NONE', *, *, #49, .T. ) ;
#63 = DIRECTION ( 'NONE',  ( 1.000000000000000000, 0.0000000000000000000, 0.0000000000000000000 ) ) ;
#64 = DIRECTION ( 'NONE',  ( 0.0000000000000000000, -1.224646799147353200E-016, 1.000000000000000000 ) ) ;
#65 = AXIS2_PLACEMENT_3D ( 'NONE', #66, #293, #40 ) ;
#66 = CARTESIAN_POINT ( 'NONE',  ( 14.87966897357473400, 0.0000000000000000000, 1.355252715606880500E-017 ) ) ;
#67 = AXIS2_PLACEMENT_3D ( 'NONE', #120, #201, #150 ) ;
#68 = VECTOR ( 'NONE', #332, 1000.000000000000000 ) ;
#69 = CARTESIAN_POINT ( 'NONE',  ( 78.81111791695468600, 0.0000000000000000000, 12.49999999999999800 ) ) ;
#70 = DIRECTION ( 'NONE',  ( 0.0000000000000000000, 1.000000000000000000, 0.0000000000000000000 ) ) ;
#71 = EDGE_CURVE ( 'NONE', #261, #138, #243, .T. ) ;
#72 = DIRECTION ( 'NONE',  ( -1.000000000000000000, -0.0000000000000000000, -0.0000000000000000000 ) ) ;
#73 = SURFACE_STYLE_FILL_AREA ( #289 ) ;
#74 = ORIENTED_EDGE ( 'NONE', *, *, #24, .F. ) ;
#75 = EDGE_LOOP ( 'NONE', ( #182, #214, #223 ) ) ;
#76 = EDGE_CURVE ( 'NONE', #235, #200, #343, .T. ) ;
#77 = ADVANCED_FACE ( 'NONE', ( #15 ), #304, .T. ) ;
#78 = DIRECTION ( 'NONE',  ( 0.0000000000000000000, -1.224646799147353200E-016, 1.000000000000000000 ) ) ;
#79 = APPLICATION_CONTEXT ( 'automotive_design' ) ;
#80 = VERTEX_POINT ( 'NONE', #216 ) ;
#81 = AXIS2_PLACEMENT_3D ( 'NONE', #118, #251, #122 ) ;
#82 = ADVANCED_FACE ( 'NONE', ( #93 ), #249, .T. ) ;
#83 = DIRECTION ( 'NONE',  ( -1.000000000000000000, -0.0000000000000000000, -0.0000000000000000000 ) ) ;
#84 = CARTESIAN_POINT ( 'NONE',  ( 78.81111791695470000, 0.0000000000000000000, 0.0000000000000000000 ) ) ;
#85 = ORIENTED_EDGE ( 'NONE', *, *, #234, .T. ) ;
#86 = CARTESIAN_POINT ( 'NONE',  ( 77.51448947728469800, 0.0000000000000000000, 12.50000000000000400 ) ) ;
#87 =( GEOMETRIC_REPRESENTATION_CONTEXT ( 3 ) GLOBAL_UNCERTAINTY_ASSIGNED_CONTEXT ( ( #104 ) ) GLOBAL_UNIT_ASSIGNED_CONTEXT ( ( #230, #266, #295 ) ) REPRESENTATION_CONTEXT ( 'NONE', 'WORKASPACE' ) );
#88 = ORIENTED_EDGE ( 'NONE', *, *, #18, .T. ) ;
#89 = UNCERTAINTY_MEASURE_WITH_UNIT (LENGTH_MEASURE( 1.000000000000000100E-005 ), #338, 'distance_accuracy_value', 'NONE');
#90 = AXIS2_PLACEMENT_3D ( 'NONE', #142, #327, #193 ) ;
#91 = VERTEX_POINT ( 'NONE', #187 ) ;
#92 = ORIENTED_EDGE ( 'NONE', *, *, #309, .F. ) ;
#93 = FACE_OUTER_BOUND ( 'NONE', #19, .T. ) ;
#94 = CYLINDRICAL_SURFACE ( 'NONE', #140, 12.50000000000000000 ) ;
#95 = SURFACE_SIDE_STYLE ('',( #73 ) ) ;
#96 = CIRCLE ( 'NONE', #301, 12.50000000000002800 ) ;
#97 =( GEOMETRIC_REPRESENTATION_CONTEXT ( 3 ) GLOBAL_UNCERTAINTY_ASSIGNED_CONTEXT ( ( #89 ) ) GLOBAL_UNIT_ASSIGNED_CONTEXT ( ( #338, #252, #172 ) ) REPRESENTATION_CONTEXT ( 'NONE', 'WORKASPACE' ) );
#98 = ORIENTED_EDGE ( 'NONE', *, *, #326, .F. ) ;
#99 = FACE_OUTER_BOUND ( 'NONE', #316, .T. ) ;
#100 = AXIS2_PLACEMENT_3D ( 'NONE', #306, #20, #42 ) ;
#101 = DIRECTION ( 'NONE',  ( 0.0000000000000000000, 0.0000000000000000000, 1.000000000000000000 ) ) ;
#102 = ORIENTED_EDGE ( 'NONE', *, *, #335, .T. ) ;
#103 = PRESENTATION_LAYER_ASSIGNMENT (  '', '', ( #294 ) ) ;
#104 = UNCERTAINTY_MEASURE_WITH_UNIT (LENGTH_MEASURE( 1.000000000000000100E-005 ), #230, 'distance_accuracy_value', 'NONE');
#105 = EDGE_CURVE ( 'NONE', #261, #125, #149, .T. ) ;
#106 = CARTESIAN_POINT ( 'NONE',  ( 78.81111791695468600, 0.0000000000000000000, 0.0000000000000000000 ) ) ;
#107 = DIRECTION ( 'NONE',  ( 0.0000000000000000000, 0.0000000000000000000, 1.000000000000000000 ) ) ;
#108 = MECHANICAL_DESIGN_GEOMETRIC_PRESENTATION_REPRESENTATION (  '', ( #279 ), #254 ) ;
#109 = SPHERICAL_SURFACE ( 'NONE', #248, 65.14200000000001000 ) ;
#110 = CARTESIAN_POINT ( 'NONE',  ( -9.702612178336682500, 1.530808498934191500E-015, -12.50000000000000000 ) ) ;
#111 = DIRECTION ( 'NONE',  ( -0.0000000000000000000, 1.000000000000000000, 1.224646799147353200E-016 ) ) ;
#112 = VECTOR ( 'NONE', #181, 1000.000000000000000 ) ;
#113 = DIRECTION ( 'NONE',  ( 0.0000000000000000000, 1.000000000000000000, 0.0000000000000000000 ) ) ;
#114 = PRESENTATION_LAYER_ASSIGNMENT (  '', '', ( #279 ) ) ;
#115 = COLOUR_RGB ( '',1.000000000000000000, 1.000000000000000000, 1.000000000000000000 ) ;
#116 = ORIENTED_EDGE ( 'NONE', *, *, #309, .T. ) ;
#117 =( NAMED_UNIT ( * ) SI_UNIT ( $, .STERADIAN. ) SOLID_ANGLE_UNIT ( ) );
#118 = CARTESIAN_POINT ( 'NONE',  ( -0.5519199926577972300, 0.0000000000000000000, 0.0000000000000000000 ) ) ;
#119 =( NAMED_UNIT ( * ) PLANE_ANGLE_UNIT ( ) SI_UNIT ( $, .RADIAN. ) );
#120 = CARTESIAN_POINT ( 'NONE',  ( -129.8123310264252600, 0.0000000000000000000, 0.0000000000000000000 ) ) ;
#121 = FACE_OUTER_BOUND ( 'NONE', #50, .T. ) ;
#122 = DIRECTION ( 'NONE',  ( 0.0000000000000000000, 0.0000000000000000000, 1.000000000000000000 ) ) ;
#123 = FACE_OUTER_BOUND ( 'NONE', #167, .T. ) ;
#124 = EDGE_LOOP ( 'NONE', ( #257, #88, #28, #38 ) ) ;
#125 = VERTEX_POINT ( 'NONE', #260 ) ;
#126 = PRODUCT_DEFINITION_FORMATION_WITH_SPECIFIED_SOURCE ( 'ÈÎºÎ', '', #57, .NOT_KNOWN. ) ;
#127 = SURFACE_STYLE_USAGE ( .BOTH. , #137 ) ;
#128 = CIRCLE ( 'NONE', #4, 12.50000000000000000 ) ;
#129 = ORIENTED_EDGE ( 'NONE', *, *, #205, .T. ) ;
#130 = AXIS2_PLACEMENT_3D ( 'NONE', #221, #72, #101 ) ;
#131 = ADVANCED_FACE ( 'NONE', ( #290 ), #134, .F. ) ;
#132 =( LENGTH_UNIT ( ) NAMED_UNIT ( * ) SI_UNIT ( .MILLI., .METRE. ) );
#133 = EDGE_CURVE ( 'NONE', #235, #217, #318, .T. ) ;
#134 = SPHERICAL_SURFACE ( 'NONE', #210, 65.14200000000001000 ) ;
#135 = CARTESIAN_POINT ( 'NONE',  ( 175.6586689735747500, 0.0000000000000000000, -2.511057210696642600E-016 ) ) ;
#136 = AXIS2_PLACEMENT_3D ( 'NONE', #344, #14, #315 ) ;
#137 = SURFACE_SIDE_STYLE ('',( #7 ) ) ;
#138 = VERTEX_POINT ( 'NONE', #226 ) ;
#139 = DIRECTION ( 'NONE',  ( 0.0000000000000000000, -1.000000000000000000, 0.0000000000000000000 ) ) ;
#140 = AXIS2_PLACEMENT_3D ( 'NONE', #325, #275, #204 ) ;
#141 = SPHERICAL_SURFACE ( 'NONE', #307, 65.14199999999999600 ) ;
#142 = CARTESIAN_POINT ( 'NONE',  ( -129.8123310264252600, 0.0000000000000000000, 0.0000000000000000000 ) ) ;
#143 = ORIENTED_EDGE ( 'NONE', *, *, #9, .T. ) ;
#144 = FACE_OUTER_BOUND ( 'NONE', #231, .T. ) ;
#145 = DIRECTION ( 'NONE',  ( 0.0000000000000000000, 0.0000000000000000000, 1.000000000000000000 ) ) ;
#146 = CARTESIAN_POINT ( 'NONE',  ( 77.51448947728469800, 0.0000000000000000000, 0.0000000000000000000 ) ) ;
#147 = VERTEX_POINT ( 'NONE', #329 ) ;
#148 = CLOSED_SHELL ( 'NONE', ( #319, #287, #22, #238, #166, #82 ) ) ;
#149 = CIRCLE ( 'NONE', #186, 65.14200000000001000 ) ;
#150 = DIRECTION ( 'NONE',  ( 0.0000000000000000000, 0.0000000000000000000, -1.000000000000000000 ) ) ;
#151 = DIRECTION ( 'NONE',  ( -0.0000000000000000000, 1.000000000000000000, 1.224646799147353200E-016 ) ) ;
#152 = FILL_AREA_STYLE_COLOUR ( '', #115 ) ;
#153 = SHAPE_DEFINITION_REPRESENTATION ( #341, #206 ) ;
#154 = ORIENTED_EDGE ( 'NONE', *, *, #105, .T. ) ;
#155 = APPLICATION_PROTOCOL_DEFINITION ( 'draft international standard', 'automotive_design', 1998, #79 ) ;
#156 = AXIS2_PLACEMENT_3D ( 'NONE', #250, #246, #78 ) ;
#157 = AXIS2_PLACEMENT_3D ( 'NONE', #106, #242, #48 ) ;
#158 = PRESENTATION_STYLE_ASSIGNMENT (( #127 ) ) ;
#159 = FACE_OUTER_BOUND ( 'NONE', #209, .T. ) ;
#160 = SPHERICAL_SURFACE ( 'NONE', #267, 98.93699999999998300 ) ;
#161 = MECHANICAL_DESIGN_GEOMETRIC_PRESENTATION_REPRESENTATION (  '', ( #17 ), #169 ) ;
#162 = ORIENTED_EDGE ( 'NONE', *, *, #211, .T. ) ;
#163 = EDGE_LOOP ( 'NONE', ( #281, #102, #178 ) ) ;
#164 = ADVANCED_FACE ( 'NONE', ( #308 ), #283, .T. ) ;
#165 = LINE ( 'NONE', #262, #68 ) ;
#166 = ADVANCED_FACE ( 'NONE', ( #99 ), #94, .T. ) ;
#167 = EDGE_LOOP ( 'NONE', ( #298, #276, #256, #92 ) ) ;
#168 = ORIENTED_EDGE ( 'NONE', *, *, #268, .F. ) ;
#169 =( GEOMETRIC_REPRESENTATION_CONTEXT ( 3 ) GLOBAL_UNCERTAINTY_ASSIGNED_CONTEXT ( ( #43 ) ) GLOBAL_UNIT_ASSIGNED_CONTEXT ( ( #299, #59, #1 ) ) REPRESENTATION_CONTEXT ( 'NONE', 'WORKASPACE' ) );
#170 = CARTESIAN_POINT ( 'NONE',  ( -0.5519199926577972300, 0.0000000000000000000, 12.50000000000001100 ) ) ;
#171 = VECTOR ( 'NONE', #224, 1000.000000000000000 ) ;
#172 =( NAMED_UNIT ( * ) SI_UNIT ( $, .STERADIAN. ) SOLID_ANGLE_UNIT ( ) );
#173 = ORIENTED_EDGE ( 'NONE', *, *, #184, .F. ) ;
#174 = VERTEX_POINT ( 'NONE', #323 ) ;
#175 = PRODUCT_CONTEXT ( 'NONE', #79, 'mechanical' ) ;
#176 = CIRCLE ( 'NONE', #339, 65.14199999999999600 ) ;
#177 = SURFACE_SIDE_STYLE ('',( #321 ) ) ;
#178 = ORIENTED_EDGE ( 'NONE', *, *, #133, .T. ) ;
#179 = DIRECTION ( 'NONE',  ( 0.0000000000000000000, 0.0000000000000000000, 1.000000000000000000 ) ) ;
#180 = DIRECTION ( 'NONE',  ( 0.0000000000000000000, -1.000000000000000000, 0.0000000000000000000 ) ) ;
#181 = DIRECTION ( 'NONE',  ( -1.000000000000000000, -0.0000000000000000000, -0.0000000000000000000 ) ) ;
#182 = ORIENTED_EDGE ( 'NONE', *, *, #32, .F. ) ;
#183 = DIRECTION ( 'NONE',  ( 0.0000000000000000000, 1.000000000000000000, 0.0000000000000000000 ) ) ;
#184 = EDGE_CURVE ( 'NONE', #80, #200, #44, .T. ) ;
#185 = CARTESIAN_POINT ( 'NONE',  ( 0.0000000000000000000, 0.0000000000000000000, 0.0000000000000000000 ) ) ;
#186 = AXIS2_PLACEMENT_3D ( 'NONE', #272, #29, #2 ) ;
#187 = CARTESIAN_POINT ( 'NONE',  ( 80.02166897357472000, 0.0000000000000000000, 4.002349616658913100E-015 ) ) ;
#188 = SPHERICAL_SURFACE ( 'NONE', #229, 98.93699999999998300 ) ;
#189 = CARTESIAN_POINT ( 'NONE',  ( -9.702612178336682500, 0.0000000000000000000, 0.0000000000000000000 ) ) ;
#190 = ADVANCED_FACE ( 'NONE', ( #46 ), #194, .T. ) ;
#191 = FILL_AREA_STYLE_COLOUR ( '', #297 ) ;
#192 = AXIS2_PLACEMENT_3D ( 'NONE', #274, #227, #6 ) ;
#193 = DIRECTION ( 'NONE',  ( 0.0000000000000000000, 0.0000000000000000000, 1.000000000000000000 ) ) ;
#194 = CYLINDRICAL_SURFACE ( 'NONE', #100, 12.50000000000001100 ) ;
#195 = CARTESIAN_POINT ( 'NONE',  ( 80.02166897357473400, 0.0000000000000000000, 4.002349616658913900E-015 ) ) ;
#196 = EDGE_LOOP ( 'NONE', ( #285, #85, #143, #98 ) ) ;
#197 = EDGE_LOOP ( 'NONE', ( #74, #162, #345 ) ) ;
#198 = AXIS2_PLACEMENT_3D ( 'NONE', #220, #113, #245 ) ;
#199 = CARTESIAN_POINT ( 'NONE',  ( 175.6586689735747500, 0.0000000000000000000, -2.511057210696642600E-016 ) ) ;
#200 = VERTEX_POINT ( 'NONE', #258 ) ;
#201 = DIRECTION ( 'NONE',  ( 0.0000000000000000000, -1.000000000000000000, 0.0000000000000000000 ) ) ;
#202 = DIRECTION ( 'NONE',  ( -1.000000000000000000, -0.0000000000000000000, -0.0000000000000000000 ) ) ;
#203 = PRODUCT_RELATED_PRODUCT_CATEGORY ( 'part', '', ( #57 ) ) ;
#204 = DIRECTION ( 'NONE',  ( 0.0000000000000000000, 0.0000000000000000000, 1.000000000000000000 ) ) ;
#205 = EDGE_CURVE ( 'NONE', #200, #217, #219, .T. ) ;
#206 = ADVANCED_BREP_SHAPE_REPRESENTATION ( '145044', ( #303, #337, #286 ), #87 ) ;
#207 = FACE_OUTER_BOUND ( 'NONE', #75, .T. ) ;
#208 = VERTEX_POINT ( 'NONE', #69 ) ;
#209 = EDGE_LOOP ( 'NONE', ( #13, #154, #62 ) ) ;
#210 = AXIS2_PLACEMENT_3D ( 'NONE', #45, #218, #10 ) ;
#211 = EDGE_CURVE ( 'NONE', #21, #147, #291, .T. ) ;
#212 = ORIENTED_EDGE ( 'NONE', *, *, #105, .F. ) ;
#213 = DIRECTION ( 'NONE',  ( 0.0000000000000000000, 0.0000000000000000000, -1.000000000000000000 ) ) ;
#214 = ORIENTED_EDGE ( 'NONE', *, *, #51, .T. ) ;
#215 = DIRECTION ( 'NONE',  ( -1.000000000000000000, -0.0000000000000000000, -0.0000000000000000000 ) ) ;
#216 = CARTESIAN_POINT ( 'NONE',  ( 78.81111791695468600, 1.530808498934191300E-015, -12.49999999999999800 ) ) ;
#217 = VERTEX_POINT ( 'NONE', #23 ) ;
#218 = DIRECTION ( 'NONE',  ( 0.0000000000000000000, 1.000000000000000000, 0.0000000000000000000 ) ) ;
#219 = CIRCLE ( 'NONE', #324, 98.93699999999998300 ) ;
#220 = CARTESIAN_POINT ( 'NONE',  ( 14.87966897357473400, 0.0000000000000000000, 1.355252715606880500E-017 ) ) ;
#221 = CARTESIAN_POINT ( 'NONE',  ( 78.81111791695468600, 0.0000000000000000000, 0.0000000000000000000 ) ) ;
#222 = AXIS2_PLACEMENT_3D ( 'NONE', #58, #111, #64 ) ;
#223 = ORIENTED_EDGE ( 'NONE', *, *, #11, .F. ) ;
#224 = DIRECTION ( 'NONE',  ( -1.000000000000000000, -0.0000000000000000000, -0.0000000000000000000 ) ) ;
#225 = CIRCLE ( 'NONE', #54, 12.50000000000002800 ) ;
#226 = CARTESIAN_POINT ( 'NONE',  ( 78.81111791695470000, 1.530808498934195900E-015, -12.50000000000003600 ) ) ;
#227 = DIRECTION ( 'NONE',  ( 0.0000000000000000000, 1.000000000000000000, 0.0000000000000000000 ) ) ;
#228 = AXIS2_PLACEMENT_3D ( 'NONE', #330, #240, #271 ) ;
#229 = AXIS2_PLACEMENT_3D ( 'NONE', #199, #8, #346 ) ;
#230 =( LENGTH_UNIT ( ) NAMED_UNIT ( * ) SI_UNIT ( .MILLI., .METRE. ) );
#231 = EDGE_LOOP ( 'NONE', ( #280, #269, #53 ) ) ;
#232 = AXIS2_PLACEMENT_3D ( 'NONE', #288, #139, #213 ) ;
#233 = ORIENTED_EDGE ( 'NONE', *, *, #71, .T. ) ;
#234 = EDGE_CURVE ( 'NONE', #147, #174, #55, .T. ) ;
#235 = VERTEX_POINT ( 'NONE', #86 ) ;
#236 = PRODUCT_DEFINITION ( 'Î´Öª', '', #126, #311 ) ;
#237 = CARTESIAN_POINT ( 'NONE',  ( 14.87966897357473400, 0.0000000000000000000, 1.355252715606880500E-017 ) ) ;
#238 = ADVANCED_FACE ( 'NONE', ( #310 ), #160, .T. ) ;
#239 = CIRCLE ( 'NONE', #156, 65.14199999999999600 ) ;
#240 = DIRECTION ( 'NONE',  ( -1.000000000000000000, -0.0000000000000000000, -0.0000000000000000000 ) ) ;
#241 = APPLICATION_CONTEXT ( 'automotive_design' ) ;
#242 = DIRECTION ( 'NONE',  ( -1.000000000000000000, -0.0000000000000000000, -0.0000000000000000000 ) ) ;
#243 = CIRCLE ( 'NONE', #65, 65.14200000000001000 ) ;
#244 = CARTESIAN_POINT ( 'NONE',  ( 14.87966897357473400, 0.0000000000000000000, 1.355252715606880500E-017 ) ) ;
#245 = DIRECTION ( 'NONE',  ( 0.0000000000000000000, 0.0000000000000000000, 1.000000000000000000 ) ) ;
#246 = DIRECTION ( 'NONE',  ( -0.0000000000000000000, 1.000000000000000000, 1.224646799147353200E-016 ) ) ;
#247 = ORIENTED_EDGE ( 'NONE', *, *, #133, .F. ) ;
#248 = AXIS2_PLACEMENT_3D ( 'NONE', #244, #183, #179 ) ;
#249 = SPHERICAL_SURFACE ( 'NONE', #198, 65.14199999999999600 ) ;
#250 = CARTESIAN_POINT ( 'NONE',  ( 14.87966897357473400, 0.0000000000000000000, 1.355252715606880500E-017 ) ) ;
#251 = DIRECTION ( 'NONE',  ( -1.000000000000000000, -0.0000000000000000000, -0.0000000000000000000 ) ) ;
#252 =( NAMED_UNIT ( * ) PLANE_ANGLE_UNIT ( ) SI_UNIT ( $, .RADIAN. ) );
#253 = ORIENTED_EDGE ( 'NONE', *, *, #51, .F. ) ;
#254 =( GEOMETRIC_REPRESENTATION_CONTEXT ( 3 ) GLOBAL_UNCERTAINTY_ASSIGNED_CONTEXT ( ( #26 ) ) GLOBAL_UNIT_ASSIGNED_CONTEXT ( ( #132, #119, #117 ) ) REPRESENTATION_CONTEXT ( 'NONE', 'WORKASPACE' ) );
#255 = SURFACE_STYLE_USAGE ( .BOTH. , #177 ) ;
#256 = ORIENTED_EDGE ( 'NONE', *, *, #76, .F. ) ;
#257 = ORIENTED_EDGE ( 'NONE', *, *, #39, .T. ) ;
#258 = CARTESIAN_POINT ( 'NONE',  ( 77.51448947728469800, 1.530808498934191900E-015, -12.50000000000000400 ) ) ;
#259 = CYLINDRICAL_SURFACE ( 'NONE', #312, 12.50000000000000000 ) ;
#260 = CARTESIAN_POINT ( 'NONE',  ( 78.81111791695470000, 0.0000000000000000000, 12.50000000000003600 ) ) ;
#261 = VERTEX_POINT ( 'NONE', #195 ) ;
#262 = CARTESIAN_POINT ( 'NONE',  ( -0.5519199926577972300, 1.530808498934192900E-015, -12.50000000000001100 ) ) ;
#263 = DIRECTION ( 'NONE',  ( -1.000000000000000000, -0.0000000000000000000, -0.0000000000000000000 ) ) ;
#264 = ADVANCED_FACE ( 'NONE', ( #159 ), #109, .F. ) ;
#265 = CIRCLE ( 'NONE', #67, 211.4340000000000000 ) ;
#266 =( NAMED_UNIT ( * ) PLANE_ANGLE_UNIT ( ) SI_UNIT ( $, .RADIAN. ) );
#267 = AXIS2_PLACEMENT_3D ( 'NONE', #56, #300, #277 ) ;
#268 = EDGE_CURVE ( 'NONE', #80, #208, #36, .T. ) ;
#269 = ORIENTED_EDGE ( 'NONE', *, *, #24, .T. ) ;
#270 = ADVANCED_FACE ( 'NONE', ( #144 ), #347, .T. ) ;
#271 = DIRECTION ( 'NONE',  ( 0.0000000000000000000, 0.0000000000000000000, 1.000000000000000000 ) ) ;
#272 = CARTESIAN_POINT ( 'NONE',  ( 14.87966897357473400, 0.0000000000000000000, 1.355252715606880500E-017 ) ) ;
#273 = DIRECTION ( 'NONE',  ( -1.000000000000000000, -0.0000000000000000000, -0.0000000000000000000 ) ) ;
#274 = CARTESIAN_POINT ( 'NONE',  ( -129.8123310264252600, 0.0000000000000000000, 0.0000000000000000000 ) ) ;
#275 = DIRECTION ( 'NONE',  ( -1.000000000000000000, -0.0000000000000000000, -0.0000000000000000000 ) ) ;
#276 = ORIENTED_EDGE ( 'NONE', *, *, #184, .T. ) ;
#277 = DIRECTION ( 'NONE',  ( 0.0000000000000000000, 0.0000000000000000000, 1.000000000000000000 ) ) ;
#278 = DIRECTION ( 'NONE',  ( -1.000000000000000000, -0.0000000000000000000, -0.0000000000000000000 ) ) ;
#279 = STYLED_ITEM ( 'NONE', ( #158 ), #206 ) ;
#280 = ORIENTED_EDGE ( 'NONE', *, *, #211, .F. ) ;
#281 = ORIENTED_EDGE ( 'NONE', *, *, #205, .F. ) ;
#282 = SURFACE_STYLE_USAGE ( .BOTH. , #95 ) ;
#283 = CYLINDRICAL_SURFACE ( 'NONE', #81, 12.50000000000001100 ) ;
#284 = DIRECTION ( 'NONE',  ( 0.0000000000000000000, 0.0000000000000000000, 1.000000000000000000 ) ) ;
#285 = ORIENTED_EDGE ( 'NONE', *, *, #18, .F. ) ;
#286 = AXIS2_PLACEMENT_3D ( 'NONE', #185, #34, #63 ) ;
#287 = ADVANCED_FACE ( 'NONE', ( #123 ), #259, .T. ) ;
#288 = CARTESIAN_POINT ( 'NONE',  ( 175.6586689735747500, 0.0000000000000000000, -2.511057210696642600E-016 ) ) ;
#289 = FILL_AREA_STYLE ('',( #314 ) ) ;
#290 = FACE_OUTER_BOUND ( 'NONE', #313, .T. ) ;
#291 = CIRCLE ( 'NONE', #222, 211.4340000000000000 ) ;
#292 = APPLICATION_PROTOCOL_DEFINITION ( 'draft international standard', 'automotive_design', 1998, #241 ) ;
#293 = DIRECTION ( 'NONE',  ( -0.0000000000000000000, 1.000000000000000000, 1.224646799147353200E-016 ) ) ;
#294 = STYLED_ITEM ( 'NONE', ( #331 ), #303 ) ;
#295 =( NAMED_UNIT ( * ) SI_UNIT ( $, .STERADIAN. ) SOLID_ANGLE_UNIT ( ) );
#296 = CARTESIAN_POINT ( 'NONE',  ( 14.87966897357473400, 0.0000000000000000000, 1.355252715606880500E-017 ) ) ;
#297 = COLOUR_RGB ( '',1.000000000000000000, 1.000000000000000000, 1.000000000000000000 ) ;
#298 = ORIENTED_EDGE ( 'NONE', *, *, #11, .T. ) ;
#299 =( LENGTH_UNIT ( ) NAMED_UNIT ( * ) SI_UNIT ( .MILLI., .METRE. ) );
#300 = DIRECTION ( 'NONE',  ( 0.0000000000000000000, 1.000000000000000000, 0.0000000000000000000 ) ) ;
#301 = AXIS2_PLACEMENT_3D ( 'NONE', #27, #202, #5 ) ;
#302 = ORIENTED_EDGE ( 'NONE', *, *, #32, .T. ) ;
#303 = MANIFOLD_SOLID_BREP ( 'Ðý×ª1', #148 ) ;
#304 = SPHERICAL_SURFACE ( 'NONE', #192, 211.4340000000000000 ) ;
#305 = DIRECTION ( 'NONE',  ( 0.0000000000000000000, -1.224646799147353200E-016, 1.000000000000000000 ) ) ;
#306 = CARTESIAN_POINT ( 'NONE',  ( -0.5519199926577972300, 0.0000000000000000000, 0.0000000000000000000 ) ) ;
#307 = AXIS2_PLACEMENT_3D ( 'NONE', #296, #70, #60 ) ;
#308 = FACE_OUTER_BOUND ( 'NONE', #124, .T. ) ;
#309 = EDGE_CURVE ( 'NONE', #208, #235, #12, .T. ) ;
#310 = FACE_OUTER_BOUND ( 'NONE', #163, .T. ) ;
#311 = PRODUCT_DEFINITION_CONTEXT ( 'detailed design', #241, 'design' ) ;
#312 = AXIS2_PLACEMENT_3D ( 'NONE', #189, #83, #145 ) ;
#313 = EDGE_LOOP ( 'NONE', ( #212, #233, #33 ) ) ;
#314 = FILL_AREA_STYLE_COLOUR ( '', #342 ) ;
#315 = DIRECTION ( 'NONE',  ( 0.0000000000000000000, 0.0000000000000000000, 1.000000000000000000 ) ) ;
#316 = EDGE_LOOP ( 'NONE', ( #173, #336, #116, #340 ) ) ;
#317 = CIRCLE ( 'NONE', #157, 12.49999999999999800 ) ;
#318 = CIRCLE ( 'NONE', #232, 98.93699999999998300 ) ;
#319 = ADVANCED_FACE ( 'NONE', ( #207 ), #141, .T. ) ;
#320 = DIRECTION ( 'NONE',  ( 0.0000000000000000000, 0.0000000000000000000, 1.000000000000000000 ) ) ;
#321 = SURFACE_STYLE_FILL_AREA ( #322 ) ;
#322 = FILL_AREA_STYLE ('',( #152 ) ) ;
#323 = CARTESIAN_POINT ( 'NONE',  ( 81.25184489170636900, 0.0000000000000000000, 12.49999999999999300 ) ) ;
#324 = AXIS2_PLACEMENT_3D ( 'NONE', #135, #151, #305 ) ;
#325 = CARTESIAN_POINT ( 'NONE',  ( -9.702612178336682500, 0.0000000000000000000, 0.0000000000000000000 ) ) ;
#326 = EDGE_CURVE ( 'NONE', #138, #125, #225, .T. ) ;
#327 = DIRECTION ( 'NONE',  ( 0.0000000000000000000, 1.000000000000000000, 0.0000000000000000000 ) ) ;
#328 = DIRECTION ( 'NONE',  ( 0.0000000000000000000, 0.0000000000000000000, -1.000000000000000000 ) ) ;
#329 = CARTESIAN_POINT ( 'NONE',  ( 81.25184489170636900, 1.530808498934191900E-015, -12.49999999999999300 ) ) ;
#330 = CARTESIAN_POINT ( 'NONE',  ( 77.51448947728469800, 0.0000000000000000000, 0.0000000000000000000 ) ) ;
#331 = PRESENTATION_STYLE_ASSIGNMENT (( #255 ) ) ;
#332 = DIRECTION ( 'NONE',  ( -1.000000000000000000, -0.0000000000000000000, -0.0000000000000000000 ) ) ;
#333 = MECHANICAL_DESIGN_GEOMETRIC_PRESENTATION_REPRESENTATION (  '', ( #294 ), #97 ) ;
#334 = CLOSED_SHELL ( 'NONE', ( #77, #164, #131, #264, #190, #270 ) ) ;
#335 = EDGE_CURVE ( 'NONE', #200, #235, #128, .T. ) ;
#336 = ORIENTED_EDGE ( 'NONE', *, *, #268, .T. ) ;
#337 = MANIFOLD_SOLID_BREP ( 'Ðý×ª3', #334 ) ;
#338 =( LENGTH_UNIT ( ) NAMED_UNIT ( * ) SI_UNIT ( .MILLI., .METRE. ) );
#339 = AXIS2_PLACEMENT_3D ( 'NONE', #237, #180, #328 ) ;
#340 = ORIENTED_EDGE ( 'NONE', *, *, #335, .F. ) ;
#341 = PRODUCT_DEFINITION_SHAPE ( 'NONE', 'NONE',  #236 ) ;
#342 = COLOUR_RGB ( '',1.000000000000000000, 1.000000000000000000, 1.000000000000000000 ) ;
#343 = CIRCLE ( 'NONE', #228, 12.50000000000000000 ) ;
#344 = CARTESIAN_POINT ( 'NONE',  ( 81.25184489170636900, 0.0000000000000000000, 0.0000000000000000000 ) ) ;
#345 = ORIENTED_EDGE ( 'NONE', *, *, #39, .F. ) ;
#346 = DIRECTION ( 'NONE',  ( 0.0000000000000000000, 0.0000000000000000000, 1.000000000000000000 ) ) ;
#347 = SPHERICAL_SURFACE ( 'NONE', #90, 211.4340000000000000 ) ;
ENDSEC;
END-ISO-10303-21;
