ISO-10303-21;
HEADER;
FILE_DESCRIPTION (( 'STEP AP214' ),
    '1' );
FILE_NAME ('145036.STEP',
    '2019-05-11T07:20:27',
    ( 'user' ),
    ( 'Î¢ÈíÖÐ¹ú' ),
    'SwSTEP 2.0',
    'SolidWorks 2016',
    '' );
FILE_SCHEMA (( 'AUTOMOTIVE_DESIGN' ));
ENDSEC;

DATA;
#1 =( LENGTH_UNIT ( ) NAMED_UNIT ( * ) SI_UNIT ( .MILLI., .METRE. ) );
#2 = EDGE_CURVE ( 'NONE', #278, #269, #126, .T. ) ;
#3 = CIRCLE ( 'NONE', #47, 86.90800000000000100 ) ;
#4 = EDGE_CURVE ( 'NONE', #230, #245, #141, .T. ) ;
#5 = DIRECTION ( 'NONE',  ( 0.0000000000000000000, 0.0000000000000000000, 1.000000000000000000 ) ) ;
#6 = CARTESIAN_POINT ( 'NONE',  ( 34.63735244397046400, 0.0000000000000000000, 0.0000000000000000000 ) ) ;
#7 = VERTEX_POINT ( 'NONE', #270 ) ;
#8 = DIRECTION ( 'NONE',  ( -1.000000000000000000, -0.0000000000000000000, -0.0000000000000000000 ) ) ;
#9 = DIRECTION ( 'NONE',  ( 0.0000000000000000000, 0.0000000000000000000, 1.000000000000000000 ) ) ;
#10 = AXIS2_PLACEMENT_3D ( 'NONE', #282, #154, #158 ) ;
#11 = DIRECTION ( 'NONE',  ( 0.0000000000000000000, 1.000000000000000000, 0.0000000000000000000 ) ) ;
#12 = CARTESIAN_POINT ( 'NONE',  ( 29.42891404261718700, -1.224646799147353300E-015, 10.00000000000000000 ) ) ;
#13 = SPHERICAL_SURFACE ( 'NONE', #115, 40.17900000000000200 ) ;
#14 = CARTESIAN_POINT ( 'NONE',  ( 68.34359046424505400, 0.0000000000000000000, 1.626303258724928600E-016 ) ) ;
#15 = CARTESIAN_POINT ( 'NONE',  ( 31.18981107822480000, 0.0000000000000000000, 9.999999999999998200 ) ) ;
#16 = EDGE_CURVE ( 'NONE', #182, #7, #325, .T. ) ;
#17 = PRESENTATION_STYLE_ASSIGNMENT (( #311 ) ) ;
#18 = CARTESIAN_POINT ( 'NONE',  ( -9.702612178336682500, 0.0000000000000000000, 0.0000000000000000000 ) ) ;
#19 = EDGE_CURVE ( 'NONE', #165, #7, #61, .T. ) ;
#20 = ORIENTED_EDGE ( 'NONE', *, *, #331, .F. ) ;
#21 = VECTOR ( 'NONE', #205, 1000.000000000000000 ) ;
#22 = APPLICATION_CONTEXT ( 'automotive_design' ) ;
#23 = CARTESIAN_POINT ( 'NONE',  ( -51.69340953575494500, 0.0000000000000000000, 0.0000000000000000000 ) ) ;
#24 = ORIENTED_EDGE ( 'NONE', *, *, #119, .T. ) ;
#25 = ORIENTED_EDGE ( 'NONE', *, *, #113, .F. ) ;
#26 = LINE ( 'NONE', #151, #184 ) ;
#27 = AXIS2_PLACEMENT_3D ( 'NONE', #328, #120, #155 ) ;
#28 = CARTESIAN_POINT ( 'NONE',  ( 29.42891404261718700, 0.0000000000000000000, -10.00000000000000000 ) ) ;
#29 = AXIS2_PLACEMENT_3D ( 'NONE', #127, #298, #300 ) ;
#30 = DIRECTION ( 'NONE',  ( -0.0000000000000000000, 1.000000000000000000, 1.224646799147353200E-016 ) ) ;
#31 = UNCERTAINTY_MEASURE_WITH_UNIT (LENGTH_MEASURE( 1.000000000000000100E-005 ), #290, 'distance_accuracy_value', 'NONE');
#32 = CARTESIAN_POINT ( 'NONE',  ( 3.573590464245053800, 0.0000000000000000000, -5.421010862427522200E-017 ) ) ;
#33 = EDGE_CURVE ( 'NONE', #312, #147, #60, .T. ) ;
#34 = DIRECTION ( 'NONE',  ( 0.0000000000000000000, 1.000000000000000000, 0.0000000000000000000 ) ) ;
#35 = ORIENTED_EDGE ( 'NONE', *, *, #2, .T. ) ;
#36 = CARTESIAN_POINT ( 'NONE',  ( 32.94459046424505300, 0.0000000000000000000, 1.744244948263570000E-015 ) ) ;
#37 = CARTESIAN_POINT ( 'NONE',  ( -51.69340953575494500, 0.0000000000000000000, 0.0000000000000000000 ) ) ;
#38 = AXIS2_PLACEMENT_3D ( 'NONE', #201, #200, #198 ) ;
#39 = ORIENTED_EDGE ( 'NONE', *, *, #4, .T. ) ;
#40 = CIRCLE ( 'NONE', #150, 40.17900000000000200 ) ;
#41 = DIRECTION ( 'NONE',  ( 0.0000000000000000000, 1.000000000000000000, 0.0000000000000000000 ) ) ;
#42 = CARTESIAN_POINT ( 'NONE',  ( 3.573590464245053800, 0.0000000000000000000, -5.421010862427522200E-017 ) ) ;
#43 = SPHERICAL_SURFACE ( 'NONE', #133, 86.90800000000000100 ) ;
#44 = VERTEX_POINT ( 'NONE', #308 ) ;
#45 = ORIENTED_EDGE ( 'NONE', *, *, #33, .F. ) ;
#46 = APPLICATION_CONTEXT ( 'automotive_design' ) ;
#47 = AXIS2_PLACEMENT_3D ( 'NONE', #37, #254, #250 ) ;
#48 = PRESENTATION_LAYER_ASSIGNMENT (  '', '', ( #99 ) ) ;
#49 = EDGE_LOOP ( 'NONE', ( #116, #52, #296 ) ) ;
#50 = ORIENTED_EDGE ( 'NONE', *, *, #124, .T. ) ;
#51 = ORIENTED_EDGE ( 'NONE', *, *, #110, .F. ) ;
#52 = ORIENTED_EDGE ( 'NONE', *, *, #170, .T. ) ;
#53 = EDGE_CURVE ( 'NONE', #147, #312, #276, .T. ) ;
#54 = DIRECTION ( 'NONE',  ( 0.0000000000000000000, 0.0000000000000000000, 1.000000000000000000 ) ) ;
#55 = CARTESIAN_POINT ( 'NONE',  ( 3.573590464245053800, 0.0000000000000000000, -5.421010862427522200E-017 ) ) ;
#56 = CARTESIAN_POINT ( 'NONE',  ( 31.18981107822479600, 0.0000000000000000000, 0.0000000000000000000 ) ) ;
#57 = ORIENTED_EDGE ( 'NONE', *, *, #16, .T. ) ;
#58 = PRODUCT_DEFINITION ( 'Î´Öª', '', #80, #235 ) ;
#59 = DIRECTION ( 'NONE',  ( -0.0000000000000000000, -1.000000000000000000, -0.0000000000000000000 ) ) ;
#60 = CIRCLE ( 'NONE', #84, 9.999999999999998200 ) ;
#61 = CIRCLE ( 'NONE', #341, 29.37099999999999900 ) ;
#62 = EDGE_LOOP ( 'NONE', ( #159, #163, #310, #130 ) ) ;
#63 = DIRECTION ( 'NONE',  ( 0.0000000000000000000, 1.000000000000000000, 0.0000000000000000000 ) ) ;
#64 = DIRECTION ( 'NONE',  ( 0.0000000000000000000, 0.0000000000000000000, 1.000000000000000000 ) ) ;
#65 = CARTESIAN_POINT ( 'NONE',  ( 68.34359046424505400, 0.0000000000000000000, 1.626303258724928600E-016 ) ) ;
#66 = ORIENTED_EDGE ( 'NONE', *, *, #119, .F. ) ;
#67 = AXIS2_PLACEMENT_3D ( 'NONE', #92, #89, #86 ) ;
#68 = FACE_OUTER_BOUND ( 'NONE', #49, .T. ) ;
#69 = MECHANICAL_DESIGN_GEOMETRIC_PRESENTATION_REPRESENTATION (  '', ( #99 ), #272 ) ;
#70 = ORIENTED_EDGE ( 'NONE', *, *, #268, .T. ) ;
#71 = PRODUCT_DEFINITION_SHAPE ( 'NONE', 'NONE',  #58 ) ;
#72 = ORIENTED_EDGE ( 'NONE', *, *, #170, .F. ) ;
#73 = CIRCLE ( 'NONE', #299, 9.999999999999991100 ) ;
#74 = AXIS2_PLACEMENT_3D ( 'NONE', #94, #123, #255 ) ;
#75 = ADVANCED_FACE ( 'NONE', ( #197 ), #146, .T. ) ;
#76 = ORIENTED_EDGE ( 'NONE', *, *, #268, .F. ) ;
#77 = APPLICATION_PROTOCOL_DEFINITION ( 'draft international standard', 'automotive_design', 1998, #46 ) ;
#78 = ORIENTED_EDGE ( 'NONE', *, *, #277, .T. ) ;
#79 = SURFACE_STYLE_FILL_AREA ( #237 ) ;
#80 = PRODUCT_DEFINITION_FORMATION_WITH_SPECIFIED_SOURCE ( 'ÈÎºÎ', '', #143, .NOT_KNOWN. ) ;
#81 = DIRECTION ( 'NONE',  ( 0.0000000000000000000, 0.0000000000000000000, 1.000000000000000000 ) ) ;
#82 = EDGE_LOOP ( 'NONE', ( #157, #213, #221 ) ) ;
#83 = VECTOR ( 'NONE', #283, 1000.000000000000000 ) ;
#84 = AXIS2_PLACEMENT_3D ( 'NONE', #129, #125, #114 ) ;
#85 = SPHERICAL_SURFACE ( 'NONE', #258, 40.17900000000000200 ) ;
#86 = DIRECTION ( 'NONE',  ( 0.0000000000000000000, 0.0000000000000000000, 1.000000000000000000 ) ) ;
#87 = FACE_OUTER_BOUND ( 'NONE', #347, .T. ) ;
#88 = AXIS2_PLACEMENT_3D ( 'NONE', #42, #63, #208 ) ;
#89 = DIRECTION ( 'NONE',  ( -1.000000000000000000, -0.0000000000000000000, -0.0000000000000000000 ) ) ;
#90 = CARTESIAN_POINT ( 'NONE',  ( 3.573590464245053800, 0.0000000000000000000, -5.421010862427522200E-017 ) ) ;
#91 = AXIS2_PLACEMENT_3D ( 'NONE', #23, #225, #81 ) ;
#92 = CARTESIAN_POINT ( 'NONE',  ( 31.18981107822480000, 0.0000000000000000000, 0.0000000000000000000 ) ) ;
#93 = DIRECTION ( 'NONE',  ( -1.000000000000000000, -0.0000000000000000000, -0.0000000000000000000 ) ) ;
#94 = CARTESIAN_POINT ( 'NONE',  ( -9.702612178336682500, 0.0000000000000000000, 0.0000000000000000000 ) ) ;
#95 = COLOUR_RGB ( '',1.000000000000000000, 1.000000000000000000, 1.000000000000000000 ) ;
#96 = DIRECTION ( 'NONE',  ( 0.0000000000000000000, -1.224646799147353000E-016, 1.000000000000000000 ) ) ;
#97 = PRODUCT_RELATED_PRODUCT_CATEGORY ( 'part', '', ( #143 ) ) ;
#98 = ORIENTED_EDGE ( 'NONE', *, *, #33, .T. ) ;
#99 = STYLED_ITEM ( 'NONE', ( #17 ), #295 ) ;
#100 =( LENGTH_UNIT ( ) NAMED_UNIT ( * ) SI_UNIT ( .MILLI., .METRE. ) );
#101 = DIRECTION ( 'NONE',  ( 0.0000000000000000000, 1.000000000000000000, -0.0000000000000000000 ) ) ;
#102 = ADVANCED_FACE ( 'NONE', ( #343 ), #85, .T. ) ;
#103 = EDGE_LOOP ( 'NONE', ( #25, #149, #78 ) ) ;
#104 = CYLINDRICAL_SURFACE ( 'NONE', #10, 9.999999999999998200 ) ;
#105 = ADVANCED_FACE ( 'NONE', ( #285 ), #216, .F. ) ;
#106 = EDGE_CURVE ( 'NONE', #131, #278, #335, .T. ) ;
#107 = AXIS2_PLACEMENT_3D ( 'NONE', #204, #145, #211 ) ;
#108 =( NAMED_UNIT ( * ) SI_UNIT ( $, .STERADIAN. ) SOLID_ANGLE_UNIT ( ) );
#109 = EDGE_LOOP ( 'NONE', ( #214, #50, #239, #76 ) ) ;
#110 = EDGE_CURVE ( 'NONE', #230, #44, #3, .T. ) ;
#111 =( GEOMETRIC_REPRESENTATION_CONTEXT ( 3 ) GLOBAL_UNCERTAINTY_ASSIGNED_CONTEXT ( ( #202 ) ) GLOBAL_UNIT_ASSIGNED_CONTEXT ( ( #100, #236, #164 ) ) REPRESENTATION_CONTEXT ( 'NONE', 'WORKASPACE' ) );
#112 = UNCERTAINTY_MEASURE_WITH_UNIT (LENGTH_MEASURE( 1.000000000000000100E-005 ), #1, 'distance_accuracy_value', 'NONE');
#113 = EDGE_CURVE ( 'NONE', #165, #182, #161, .T. ) ;
#114 = DIRECTION ( 'NONE',  ( 0.0000000000000000000, 0.0000000000000000000, 1.000000000000000000 ) ) ;
#115 = AXIS2_PLACEMENT_3D ( 'NONE', #14, #338, #179 ) ;
#116 = ORIENTED_EDGE ( 'NONE', *, *, #174, .F. ) ;
#117 = FACE_OUTER_BOUND ( 'NONE', #292, .T. ) ;
#118 = SURFACE_SIDE_STYLE ('',( #238 ) ) ;
#119 = EDGE_CURVE ( 'NONE', #245, #44, #73, .T. ) ;
#120 = DIRECTION ( 'NONE',  ( -1.000000000000000000, -0.0000000000000000000, -0.0000000000000000000 ) ) ;
#121 =( NAMED_UNIT ( * ) SI_UNIT ( $, .STERADIAN. ) SOLID_ANGLE_UNIT ( ) );
#122 = DIRECTION ( 'NONE',  ( -1.000000000000000000, -0.0000000000000000000, -0.0000000000000000000 ) ) ;
#123 = DIRECTION ( 'NONE',  ( -1.000000000000000000, -0.0000000000000000000, -0.0000000000000000000 ) ) ;
#124 = EDGE_CURVE ( 'NONE', #312, #278, #156, .T. ) ;
#125 = DIRECTION ( 'NONE',  ( -1.000000000000000000, -0.0000000000000000000, -0.0000000000000000000 ) ) ;
#126 = CIRCLE ( 'NONE', #248, 40.17900000000000200 ) ;
#127 = CARTESIAN_POINT ( 'NONE',  ( 3.573590464245053800, 0.0000000000000000000, -5.421010862427522200E-017 ) ) ;
#128 = AXIS2_PLACEMENT_3D ( 'NONE', #233, #303, #281 ) ;
#129 = CARTESIAN_POINT ( 'NONE',  ( 31.18981107822480000, 0.0000000000000000000, 0.0000000000000000000 ) ) ;
#130 = ORIENTED_EDGE ( 'NONE', *, *, #16, .F. ) ;
#131 = VERTEX_POINT ( 'NONE', #12 ) ;
#132 = AXIS2_PLACEMENT_3D ( 'NONE', #56, #93, #334 ) ;
#133 = AXIS2_PLACEMENT_3D ( 'NONE', #275, #326, #243 ) ;
#134 = ORIENTED_EDGE ( 'NONE', *, *, #4, .F. ) ;
#135 = EDGE_LOOP ( 'NONE', ( #320, #195, #57 ) ) ;
#136 = EDGE_LOOP ( 'NONE', ( #72, #319, #45 ) ) ;
#137 = SURFACE_SIDE_STYLE ('',( #337 ) ) ;
#138 = CARTESIAN_POINT ( 'NONE',  ( 29.42891404261718700, 0.0000000000000000000, 0.0000000000000000000 ) ) ;
#139 = ADVANCED_FACE ( 'NONE', ( #162 ), #13, .T. ) ;
#140 = AXIS2_PLACEMENT_3D ( 'NONE', #332, #34, #259 ) ;
#141 = CIRCLE ( 'NONE', #183, 86.90800000000000100 ) ;
#142 = EDGE_LOOP ( 'NONE', ( #134, #327, #66 ) ) ;
#143 = PRODUCT ( '145036', '145036', '', ( #167 ) ) ;
#144 = DIRECTION ( 'NONE',  ( -1.000000000000000000, -0.0000000000000000000, -0.0000000000000000000 ) ) ;
#145 = DIRECTION ( 'NONE',  ( -1.000000000000000000, -0.0000000000000000000, -0.0000000000000000000 ) ) ;
#146 = CYLINDRICAL_SURFACE ( 'NONE', #74, 9.999999999999998200 ) ;
#147 = VERTEX_POINT ( 'NONE', #15 ) ;
#148 =( NAMED_UNIT ( * ) PLANE_ANGLE_UNIT ( ) SI_UNIT ( $, .RADIAN. ) );
#149 = ORIENTED_EDGE ( 'NONE', *, *, #19, .T. ) ;
#150 = AXIS2_PLACEMENT_3D ( 'NONE', #185, #284, #187 ) ;
#151 = CARTESIAN_POINT ( 'NONE',  ( -9.702612178336682500, 0.0000000000000000000, 9.999999999999998200 ) ) ;
#152 = FACE_OUTER_BOUND ( 'NONE', #244, .T. ) ;
#153 = CARTESIAN_POINT ( 'NONE',  ( 32.94459046424505300, 0.0000000000000000000, 1.744244948263570000E-015 ) ) ;
#154 = DIRECTION ( 'NONE',  ( -1.000000000000000000, -0.0000000000000000000, -0.0000000000000000000 ) ) ;
#155 = DIRECTION ( 'NONE',  ( 0.0000000000000000000, 0.0000000000000000000, 1.000000000000000000 ) ) ;
#156 = LINE ( 'NONE', #264, #83 ) ;
#157 = ORIENTED_EDGE ( 'NONE', *, *, #331, .T. ) ;
#158 = DIRECTION ( 'NONE',  ( 0.0000000000000000000, 0.0000000000000000000, 1.000000000000000000 ) ) ;
#159 = ORIENTED_EDGE ( 'NONE', *, *, #315, .F. ) ;
#160 = MANIFOLD_SOLID_BREP ( 'Ðý×ª1', #316 ) ;
#161 = CIRCLE ( 'NONE', #29, 29.37099999999999900 ) ;
#162 = FACE_OUTER_BOUND ( 'NONE', #82, .T. ) ;
#163 = ORIENTED_EDGE ( 'NONE', *, *, #229, .T. ) ;
#164 =( NAMED_UNIT ( * ) SI_UNIT ( $, .STERADIAN. ) SOLID_ANGLE_UNIT ( ) );
#165 = VERTEX_POINT ( 'NONE', #36 ) ;
#166 = SHAPE_DEFINITION_REPRESENTATION ( #71, #193 ) ;
#167 = PRODUCT_CONTEXT ( 'NONE', #22, 'mechanical' ) ;
#168 = CIRCLE ( 'NONE', #38, 9.999999999999991100 ) ;
#169 = AXIS2_PLACEMENT_3D ( 'NONE', #286, #301, #234 ) ;
#170 = EDGE_CURVE ( 'NONE', #261, #312, #297, .T. ) ;
#171 = STYLED_ITEM ( 'NONE', ( #217 ), #193 ) ;
#172 = SPHERICAL_SURFACE ( 'NONE', #304, 29.37099999999999900 ) ;
#173 = CARTESIAN_POINT ( 'NONE',  ( 68.34359046424505400, 0.0000000000000000000, 1.626303258724928600E-016 ) ) ;
#174 = EDGE_CURVE ( 'NONE', #261, #147, #321, .T. ) ;
#175 = EDGE_CURVE ( 'NONE', #131, #269, #40, .T. ) ;
#176 = CARTESIAN_POINT ( 'NONE',  ( 34.63735244397046400, 0.0000000000000000000, 9.999999999999991100 ) ) ;
#177 = LINE ( 'NONE', #180, #21 ) ;
#178 = SURFACE_SIDE_STYLE ('',( #79 ) ) ;
#179 = DIRECTION ( 'NONE',  ( 0.0000000000000000000, 0.0000000000000000000, -1.000000000000000000 ) ) ;
#180 = CARTESIAN_POINT ( 'NONE',  ( -0.5519199926577972300, 0.0000000000000000000, 9.999999999999998200 ) ) ;
#181 =( NAMED_UNIT ( * ) SI_UNIT ( $, .STERADIAN. ) SOLID_ANGLE_UNIT ( ) );
#182 = VERTEX_POINT ( 'NONE', #309 ) ;
#183 = AXIS2_PLACEMENT_3D ( 'NONE', #267, #333, #329 ) ;
#184 = VECTOR ( 'NONE', #212, 1000.000000000000000 ) ;
#185 = CARTESIAN_POINT ( 'NONE',  ( 68.34359046424505400, 0.0000000000000000000, 1.626303258724928600E-016 ) ) ;
#186 = AXIS2_PLACEMENT_3D ( 'NONE', #90, #30, #96 ) ;
#187 = DIRECTION ( 'NONE',  ( 0.0000000000000000000, 1.224646799147353200E-016, -1.000000000000000000 ) ) ;
#188 = DIRECTION ( 'NONE',  ( -1.000000000000000000, -0.0000000000000000000, -0.0000000000000000000 ) ) ;
#189 = PRESENTATION_LAYER_ASSIGNMENT (  '', '', ( #171 ) ) ;
#190 = EDGE_LOOP ( 'NONE', ( #336, #293, #35 ) ) ;
#191 = ADVANCED_FACE ( 'NONE', ( #192 ), #263, .T. ) ;
#192 = FACE_OUTER_BOUND ( 'NONE', #136, .T. ) ;
#193 = ADVANCED_BREP_SHAPE_REPRESENTATION ( '145036', ( #160, #295, #339 ), #111 ) ;
#194 = SURFACE_STYLE_USAGE ( .BOTH. , #137 ) ;
#195 = ORIENTED_EDGE ( 'NONE', *, *, #113, .T. ) ;
#196 = ADVANCED_FACE ( 'NONE', ( #117 ), #104, .T. ) ;
#197 = FACE_OUTER_BOUND ( 'NONE', #109, .T. ) ;
#198 = DIRECTION ( 'NONE',  ( 0.0000000000000000000, 0.0000000000000000000, 1.000000000000000000 ) ) ;
#199 = COLOUR_RGB ( '',1.000000000000000000, 1.000000000000000000, 1.000000000000000000 ) ;
#200 = DIRECTION ( 'NONE',  ( -1.000000000000000000, -0.0000000000000000000, -0.0000000000000000000 ) ) ;
#201 = CARTESIAN_POINT ( 'NONE',  ( 34.63735244397046400, 0.0000000000000000000, 0.0000000000000000000 ) ) ;
#202 = UNCERTAINTY_MEASURE_WITH_UNIT (LENGTH_MEASURE( 1.000000000000000100E-005 ), #100, 'distance_accuracy_value', 'NONE');
#203 =( GEOMETRIC_REPRESENTATION_CONTEXT ( 3 ) GLOBAL_UNCERTAINTY_ASSIGNED_CONTEXT ( ( #31 ) ) GLOBAL_UNIT_ASSIGNED_CONTEXT ( ( #290, #148, #181 ) ) REPRESENTATION_CONTEXT ( 'NONE', 'WORKASPACE' ) );
#204 = CARTESIAN_POINT ( 'NONE',  ( -0.5519199926577972300, 0.0000000000000000000, 0.0000000000000000000 ) ) ;
#205 = DIRECTION ( 'NONE',  ( -1.000000000000000000, -0.0000000000000000000, -0.0000000000000000000 ) ) ;
#206 = DIRECTION ( 'NONE',  ( 0.0000000000000000000, 0.0000000000000000000, 1.000000000000000000 ) ) ;
#207 = MECHANICAL_DESIGN_GEOMETRIC_PRESENTATION_REPRESENTATION (  '', ( #171 ), #226 ) ;
#208 = DIRECTION ( 'NONE',  ( 0.0000000000000000000, 0.0000000000000000000, 1.000000000000000000 ) ) ;
#209 = CARTESIAN_POINT ( 'NONE',  ( 28.16459046424505500, 0.0000000000000000000, -2.297623861274582400E-015 ) ) ;
#210 = CLOSED_SHELL ( 'NONE', ( #346, #196, #105, #218, #274, #323 ) ) ;
#211 = DIRECTION ( 'NONE',  ( 0.0000000000000000000, 0.0000000000000000000, 1.000000000000000000 ) ) ;
#212 = DIRECTION ( 'NONE',  ( -1.000000000000000000, -0.0000000000000000000, -0.0000000000000000000 ) ) ;
#213 = ORIENTED_EDGE ( 'NONE', *, *, #175, .T. ) ;
#214 = ORIENTED_EDGE ( 'NONE', *, *, #53, .T. ) ;
#215 = UNCERTAINTY_MEASURE_WITH_UNIT (LENGTH_MEASURE( 1.000000000000000100E-005 ), #279, 'distance_accuracy_value', 'NONE');
#216 = SPHERICAL_SURFACE ( 'NONE', #88, 29.37099999999999900 ) ;
#217 = PRESENTATION_STYLE_ASSIGNMENT (( #194 ) ) ;
#218 = ADVANCED_FACE ( 'NONE', ( #313 ), #246, .F. ) ;
#219 = ADVANCED_FACE ( 'NONE', ( #87 ), #242, .T. ) ;
#220 = APPLICATION_PROTOCOL_DEFINITION ( 'draft international standard', 'automotive_design', 1998, #22 ) ;
#221 = ORIENTED_EDGE ( 'NONE', *, *, #2, .F. ) ;
#222 = SPHERICAL_SURFACE ( 'NONE', #91, 86.90800000000000100 ) ;
#223 = STYLED_ITEM ( 'NONE', ( #227 ), #160 ) ;
#224 =( NAMED_UNIT ( * ) PLANE_ANGLE_UNIT ( ) SI_UNIT ( $, .RADIAN. ) );
#225 = DIRECTION ( 'NONE',  ( 0.0000000000000000000, 1.000000000000000000, 0.0000000000000000000 ) ) ;
#226 =( GEOMETRIC_REPRESENTATION_CONTEXT ( 3 ) GLOBAL_UNCERTAINTY_ASSIGNED_CONTEXT ( ( #112 ) ) GLOBAL_UNIT_ASSIGNED_CONTEXT ( ( #1, #224, #108 ) ) REPRESENTATION_CONTEXT ( 'NONE', 'WORKASPACE' ) );
#227 = PRESENTATION_STYLE_ASSIGNMENT (( #228 ) ) ;
#228 = SURFACE_STYLE_USAGE ( .BOTH. , #118 ) ;
#229 = EDGE_CURVE ( 'NONE', #44, #245, #168, .T. ) ;
#230 = VERTEX_POINT ( 'NONE', #330 ) ;
#231 = CARTESIAN_POINT ( 'NONE',  ( 3.573590464245053800, 0.0000000000000000000, -5.421010862427522200E-017 ) ) ;
#232 = CIRCLE ( 'NONE', #27, 10.00000000000000700 ) ;
#233 = CARTESIAN_POINT ( 'NONE',  ( 29.42891404261718700, 0.0000000000000000000, 0.0000000000000000000 ) ) ;
#234 = DIRECTION ( 'NONE',  ( 0.0000000000000000000, 0.0000000000000000000, -1.000000000000000000 ) ) ;
#235 = PRODUCT_DEFINITION_CONTEXT ( 'detailed design', #46, 'design' ) ;
#236 =( NAMED_UNIT ( * ) PLANE_ANGLE_UNIT ( ) SI_UNIT ( $, .RADIAN. ) );
#237 = FILL_AREA_STYLE ('',( #314 ) ) ;
#238 = SURFACE_STYLE_FILL_AREA ( #241 ) ;
#239 = ORIENTED_EDGE ( 'NONE', *, *, #106, .F. ) ;
#240 = CARTESIAN_POINT ( 'NONE',  ( 31.18981107822480000, 1.224646799147353100E-015, -9.999999999999998200 ) ) ;
#241 = FILL_AREA_STYLE ('',( #306 ) ) ;
#242 = CYLINDRICAL_SURFACE ( 'NONE', #307, 9.999999999999998200 ) ;
#243 = DIRECTION ( 'NONE',  ( 0.0000000000000000000, 0.0000000000000000000, 1.000000000000000000 ) ) ;
#244 = EDGE_LOOP ( 'NONE', ( #51, #39, #280 ) ) ;
#245 = VERTEX_POINT ( 'NONE', #176 ) ;
#246 = SPHERICAL_SURFACE ( 'NONE', #247, 29.37099999999999900 ) ;
#247 = AXIS2_PLACEMENT_3D ( 'NONE', #55, #41, #54 ) ;
#248 = AXIS2_PLACEMENT_3D ( 'NONE', #173, #101, #5 ) ;
#249 = DIRECTION ( 'NONE',  ( 0.0000000000000000000, -1.000000000000000000, 0.0000000000000000000 ) ) ;
#250 = DIRECTION ( 'NONE',  ( 0.0000000000000000000, -1.224646799147353200E-016, 1.000000000000000000 ) ) ;
#251 = ORIENTED_EDGE ( 'NONE', *, *, #124, .F. ) ;
#252 =( NAMED_UNIT ( * ) PLANE_ANGLE_UNIT ( ) SI_UNIT ( $, .RADIAN. ) );
#253 = PRESENTATION_LAYER_ASSIGNMENT (  '', '', ( #223 ) ) ;
#254 = DIRECTION ( 'NONE',  ( -0.0000000000000000000, 1.000000000000000000, 1.224646799147353200E-016 ) ) ;
#255 = DIRECTION ( 'NONE',  ( 0.0000000000000000000, 0.0000000000000000000, 1.000000000000000000 ) ) ;
#256 = MECHANICAL_DESIGN_GEOMETRIC_PRESENTATION_REPRESENTATION (  '', ( #223 ), #203 ) ;
#257 = DIRECTION ( 'NONE',  ( 0.0000000000000000000, 0.0000000000000000000, 1.000000000000000000 ) ) ;
#258 = AXIS2_PLACEMENT_3D ( 'NONE', #65, #59, #287 ) ;
#259 = DIRECTION ( 'NONE',  ( 0.0000000000000000000, 0.0000000000000000000, 1.000000000000000000 ) ) ;
#260 = DIRECTION ( 'NONE',  ( 0.0000000000000000000, 0.0000000000000000000, 1.000000000000000000 ) ) ;
#261 = VERTEX_POINT ( 'NONE', #153 ) ;
#262 = FACE_OUTER_BOUND ( 'NONE', #142, .T. ) ;
#263 = SPHERICAL_SURFACE ( 'NONE', #140, 29.37099999999999900 ) ;
#264 = CARTESIAN_POINT ( 'NONE',  ( -9.702612178336682500, 1.224646799147353100E-015, -9.999999999999998200 ) ) ;
#265 = EDGE_CURVE ( 'NONE', #245, #7, #177, .T. ) ;
#266 = DIRECTION ( 'NONE',  ( 0.0000000000000000000, 0.0000000000000000000, -1.000000000000000000 ) ) ;
#267 = CARTESIAN_POINT ( 'NONE',  ( -51.69340953575494500, 0.0000000000000000000, 0.0000000000000000000 ) ) ;
#268 = EDGE_CURVE ( 'NONE', #147, #131, #26, .T. ) ;
#269 = VERTEX_POINT ( 'NONE', #209 ) ;
#270 = CARTESIAN_POINT ( 'NONE',  ( 31.18981107822479600, 0.0000000000000000000, 10.00000000000000700 ) ) ;
#271 = CARTESIAN_POINT ( 'NONE',  ( 0.0000000000000000000, 0.0000000000000000000, 0.0000000000000000000 ) ) ;
#272 =( GEOMETRIC_REPRESENTATION_CONTEXT ( 3 ) GLOBAL_UNCERTAINTY_ASSIGNED_CONTEXT ( ( #215 ) ) GLOBAL_UNIT_ASSIGNED_CONTEXT ( ( #279, #252, #121 ) ) REPRESENTATION_CONTEXT ( 'NONE', 'WORKASPACE' ) );
#273 = LINE ( 'NONE', #305, #345 ) ;
#274 = ADVANCED_FACE ( 'NONE', ( #302 ), #294, .T. ) ;
#275 = CARTESIAN_POINT ( 'NONE',  ( -51.69340953575494500, 0.0000000000000000000, 0.0000000000000000000 ) ) ;
#276 = CIRCLE ( 'NONE', #67, 9.999999999999998200 ) ;
#277 = EDGE_CURVE ( 'NONE', #7, #182, #232, .T. ) ;
#278 = VERTEX_POINT ( 'NONE', #28 ) ;
#279 =( LENGTH_UNIT ( ) NAMED_UNIT ( * ) SI_UNIT ( .MILLI., .METRE. ) );
#280 = ORIENTED_EDGE ( 'NONE', *, *, #229, .F. ) ;
#281 = DIRECTION ( 'NONE',  ( 0.0000000000000000000, 0.0000000000000000000, 1.000000000000000000 ) ) ;
#282 = CARTESIAN_POINT ( 'NONE',  ( -0.5519199926577972300, 0.0000000000000000000, 0.0000000000000000000 ) ) ;
#283 = DIRECTION ( 'NONE',  ( -1.000000000000000000, -0.0000000000000000000, -0.0000000000000000000 ) ) ;
#284 = DIRECTION ( 'NONE',  ( 0.0000000000000000000, -1.000000000000000000, -1.224646799147353200E-016 ) ) ;
#285 = FACE_OUTER_BOUND ( 'NONE', #135, .T. ) ;
#286 = CARTESIAN_POINT ( 'NONE',  ( 3.573590464245053800, 0.0000000000000000000, -5.421010862427522200E-017 ) ) ;
#287 = DIRECTION ( 'NONE',  ( 0.0000000000000000000, 0.0000000000000000000, -1.000000000000000000 ) ) ;
#288 = ORIENTED_EDGE ( 'NONE', *, *, #265, .F. ) ;
#289 = AXIS2_PLACEMENT_3D ( 'NONE', #138, #144, #206 ) ;
#290 =( LENGTH_UNIT ( ) NAMED_UNIT ( * ) SI_UNIT ( .MILLI., .METRE. ) );
#291 = COLOUR_RGB ( '',1.000000000000000000, 1.000000000000000000, 1.000000000000000000 ) ;
#292 = EDGE_LOOP ( 'NONE', ( #24, #317, #344, #288 ) ) ;
#293 = ORIENTED_EDGE ( 'NONE', *, *, #106, .T. ) ;
#294 = CYLINDRICAL_SURFACE ( 'NONE', #107, 9.999999999999998200 ) ;
#295 = MANIFOLD_SOLID_BREP ( 'Ðý×ª3', #210 ) ;
#296 = ORIENTED_EDGE ( 'NONE', *, *, #53, .F. ) ;
#297 = CIRCLE ( 'NONE', #186, 29.37099999999999900 ) ;
#298 = DIRECTION ( 'NONE',  ( -0.0000000000000000000, 1.000000000000000000, 1.224646799147353200E-016 ) ) ;
#299 = AXIS2_PLACEMENT_3D ( 'NONE', #6, #8, #9 ) ;
#300 = DIRECTION ( 'NONE',  ( 0.0000000000000000000, -1.224646799147353000E-016, 1.000000000000000000 ) ) ;
#301 = DIRECTION ( 'NONE',  ( 0.0000000000000000000, -1.000000000000000000, 0.0000000000000000000 ) ) ;
#302 = FACE_OUTER_BOUND ( 'NONE', #62, .T. ) ;
#303 = DIRECTION ( 'NONE',  ( -1.000000000000000000, -0.0000000000000000000, -0.0000000000000000000 ) ) ;
#304 = AXIS2_PLACEMENT_3D ( 'NONE', #32, #11, #64 ) ;
#305 = CARTESIAN_POINT ( 'NONE',  ( -0.5519199926577972300, 1.224646799147353100E-015, -9.999999999999998200 ) ) ;
#306 = FILL_AREA_STYLE_COLOUR ( '', #291 ) ;
#307 = AXIS2_PLACEMENT_3D ( 'NONE', #18, #122, #260 ) ;
#308 = CARTESIAN_POINT ( 'NONE',  ( 34.63735244397046400, 1.224646799147352700E-015, -9.999999999999991100 ) ) ;
#309 = CARTESIAN_POINT ( 'NONE',  ( 31.18981107822479600, 1.224646799147354200E-015, -10.00000000000000700 ) ) ;
#310 = ORIENTED_EDGE ( 'NONE', *, *, #265, .T. ) ;
#311 = SURFACE_STYLE_USAGE ( .BOTH. , #178 ) ;
#312 = VERTEX_POINT ( 'NONE', #240 ) ;
#313 = FACE_OUTER_BOUND ( 'NONE', #103, .T. ) ;
#314 = FILL_AREA_STYLE_COLOUR ( '', #95 ) ;
#315 = EDGE_CURVE ( 'NONE', #44, #182, #273, .T. ) ;
#316 = CLOSED_SHELL ( 'NONE', ( #318, #75, #139, #102, #219, #191 ) ) ;
#317 = ORIENTED_EDGE ( 'NONE', *, *, #315, .T. ) ;
#318 = ADVANCED_FACE ( 'NONE', ( #68 ), #172, .T. ) ;
#319 = ORIENTED_EDGE ( 'NONE', *, *, #174, .T. ) ;
#320 = ORIENTED_EDGE ( 'NONE', *, *, #19, .F. ) ;
#321 = CIRCLE ( 'NONE', #169, 29.37099999999999900 ) ;
#322 = DIRECTION ( 'NONE',  ( 1.000000000000000000, 0.0000000000000000000, 0.0000000000000000000 ) ) ;
#323 = ADVANCED_FACE ( 'NONE', ( #152 ), #222, .T. ) ;
#324 = FILL_AREA_STYLE ('',( #340 ) ) ;
#325 = CIRCLE ( 'NONE', #132, 10.00000000000000700 ) ;
#326 = DIRECTION ( 'NONE',  ( 0.0000000000000000000, 1.000000000000000000, 0.0000000000000000000 ) ) ;
#327 = ORIENTED_EDGE ( 'NONE', *, *, #110, .T. ) ;
#328 = CARTESIAN_POINT ( 'NONE',  ( 31.18981107822479600, 0.0000000000000000000, 0.0000000000000000000 ) ) ;
#329 = DIRECTION ( 'NONE',  ( 0.0000000000000000000, 0.0000000000000000000, -1.000000000000000000 ) ) ;
#330 = CARTESIAN_POINT ( 'NONE',  ( 35.21459046424505600, 0.0000000000000000000, 5.321580201014908900E-015 ) ) ;
#331 = EDGE_CURVE ( 'NONE', #278, #131, #342, .T. ) ;
#332 = CARTESIAN_POINT ( 'NONE',  ( 3.573590464245053800, 0.0000000000000000000, -5.421010862427522200E-017 ) ) ;
#333 = DIRECTION ( 'NONE',  ( 0.0000000000000000000, -1.000000000000000000, 0.0000000000000000000 ) ) ;
#334 = DIRECTION ( 'NONE',  ( 0.0000000000000000000, 0.0000000000000000000, 1.000000000000000000 ) ) ;
#335 = CIRCLE ( 'NONE', #128, 9.999999999999998200 ) ;
#336 = ORIENTED_EDGE ( 'NONE', *, *, #175, .F. ) ;
#337 = SURFACE_STYLE_FILL_AREA ( #324 ) ;
#338 = DIRECTION ( 'NONE',  ( -0.0000000000000000000, -1.000000000000000000, -0.0000000000000000000 ) ) ;
#339 = AXIS2_PLACEMENT_3D ( 'NONE', #271, #257, #322 ) ;
#340 = FILL_AREA_STYLE_COLOUR ( '', #199 ) ;
#341 = AXIS2_PLACEMENT_3D ( 'NONE', #231, #249, #266 ) ;
#342 = CIRCLE ( 'NONE', #289, 9.999999999999998200 ) ;
#343 = FACE_OUTER_BOUND ( 'NONE', #190, .T. ) ;
#344 = ORIENTED_EDGE ( 'NONE', *, *, #277, .F. ) ;
#345 = VECTOR ( 'NONE', #188, 1000.000000000000000 ) ;
#346 = ADVANCED_FACE ( 'NONE', ( #262 ), #43, .T. ) ;
#347 = EDGE_LOOP ( 'NONE', ( #251, #98, #70, #20 ) ) ;
ENDSEC;
END-ISO-10303-21;
