ISO-10303-21;
HEADER;
FILE_DESCRIPTION (( 'STEP AP214' ),
    '1' );
FILE_NAME ('145034.STEP',
    '2019-05-11T06:33:01',
    ( 'user' ),
    ( 'Î¢ÈíÖÐ¹ú' ),
    'SwSTEP 2.0',
    'SolidWorks 2016',
    '' );
FILE_SCHEMA (( 'AUTOMOTIVE_DESIGN' ));
ENDSEC;

DATA;
#1 = DIRECTION ( 'NONE',  ( 0.0000000000000000000, 0.0000000000000000000, 1.000000000000000000 ) ) ;
#2 = ORIENTED_EDGE ( 'NONE', *, *, #308, .T. ) ;
#3 = CYLINDRICAL_SURFACE ( 'NONE', #257, 8.000000000000000000 ) ;
#4 = DIRECTION ( 'NONE',  ( 0.0000000000000000000, -1.000000000000000000, 0.0000000000000000000 ) ) ;
#5 = EDGE_CURVE ( 'NONE', #13, #248, #82, .T. ) ;
#6 = CARTESIAN_POINT ( 'NONE',  ( 30.55660634403188100, 0.0000000000000000000, 8.000000000000000000 ) ) ;
#7 = CLOSED_SHELL ( 'NONE', ( #79, #155, #101, #259, #309, #235 ) ) ;
#8 = FACE_OUTER_BOUND ( 'NONE', #147, .T. ) ;
#9 = FILL_AREA_STYLE ('',( #171 ) ) ;
#10 = CARTESIAN_POINT ( 'NONE',  ( 30.55660634403188100, 0.0000000000000000000, 0.0000000000000000000 ) ) ;
#11 = DIRECTION ( 'NONE',  ( 1.000000000000000000, 0.0000000000000000000, 0.0000000000000000000 ) ) ;
#12 = AXIS2_PLACEMENT_3D ( 'NONE', #110, #246, #89 ) ;
#13 = VERTEX_POINT ( 'NONE', #268 ) ;
#14 = CYLINDRICAL_SURFACE ( 'NONE', #59, 8.000000000000000000 ) ;
#15 = APPLICATION_PROTOCOL_DEFINITION ( 'draft international standard', 'automotive_design', 1998, #300 ) ;
#16 = SPHERICAL_SURFACE ( 'NONE', #12, 39.43500000000000900 ) ;
#17 = AXIS2_PLACEMENT_3D ( 'NONE', #243, #58, #217 ) ;
#18 = ORIENTED_EDGE ( 'NONE', *, *, #324, .T. ) ;
#19 = AXIS2_PLACEMENT_3D ( 'NONE', #10, #296, #195 ) ;
#20 = DIRECTION ( 'NONE',  ( 0.0000000000000000000, 0.0000000000000000000, 1.000000000000000000 ) ) ;
#21 = STYLED_ITEM ( 'NONE', ( #267 ), #114 ) ;
#22 = CIRCLE ( 'NONE', #304, 8.000000000000000000 ) ;
#23 = DIRECTION ( 'NONE',  ( 0.0000000000000000000, 0.0000000000000000000, 1.000000000000000000 ) ) ;
#24 = ADVANCED_FACE ( 'NONE', ( #8 ), #148, .T. ) ;
#25 = CARTESIAN_POINT ( 'NONE',  ( 33.01557864731847800, 0.0000000000000000000, 0.0000000000000000000 ) ) ;
#26 = SURFACE_STYLE_USAGE ( .BOTH. , #54 ) ;
#27 = ORIENTED_EDGE ( 'NONE', *, *, #120, .T. ) ;
#28 = EDGE_CURVE ( 'NONE', #13, #196, #279, .T. ) ;
#29 = CARTESIAN_POINT ( 'NONE',  ( 30.55660634403188100, 0.0000000000000000000, 0.0000000000000000000 ) ) ;
#30 = COLOUR_RGB ( '',1.000000000000000000, 1.000000000000000000, 1.000000000000000000 ) ;
#31 = CARTESIAN_POINT ( 'NONE',  ( 28.97303053123915400, 9.797174393178827600E-016, -8.000000000000000000 ) ) ;
#32 = FILL_AREA_STYLE ('',( #142 ) ) ;
#33 = VECTOR ( 'NONE', #104, 1000.000000000000000 ) ;
#34 = STYLED_ITEM ( 'NONE', ( #38 ), #344 ) ;
#35 = CLOSED_SHELL ( 'NONE', ( #24, #211, #335, #127, #185, #48 ) ) ;
#36 = ORIENTED_EDGE ( 'NONE', *, *, #293, .F. ) ;
#37 = CARTESIAN_POINT ( 'NONE',  ( -0.5519199926577972300, 0.0000000000000000000, 0.0000000000000000000 ) ) ;
#38 = PRESENTATION_STYLE_ASSIGNMENT (( #224 ) ) ;
#39 = SURFACE_SIDE_STYLE ('',( #240 ) ) ;
#40 =( LENGTH_UNIT ( ) NAMED_UNIT ( * ) SI_UNIT ( .MILLI., .METRE. ) );
#41 = ORIENTED_EDGE ( 'NONE', *, *, #191, .T. ) ;
#42 = APPLICATION_CONTEXT ( 'automotive_design' ) ;
#43 = EDGE_CURVE ( 'NONE', #160, #77, #223, .T. ) ;
#44 = ORIENTED_EDGE ( 'NONE', *, *, #120, .F. ) ;
#45 = VERTEX_POINT ( 'NONE', #193 ) ;
#46 = CARTESIAN_POINT ( 'NONE',  ( 30.55660634403188100, 9.797174393178819700E-016, -7.999999999999994700 ) ) ;
#47 = PRESENTATION_LAYER_ASSIGNMENT (  '', '', ( #34 ) ) ;
#48 = ADVANCED_FACE ( 'NONE', ( #74 ), #141, .T. ) ;
#49 = CARTESIAN_POINT ( 'NONE',  ( 28.97303053123915400, 0.0000000000000000000, 0.0000000000000000000 ) ) ;
#50 = DIRECTION ( 'NONE',  ( -1.000000000000000000, -0.0000000000000000000, -0.0000000000000000000 ) ) ;
#51 =( GEOMETRIC_REPRESENTATION_CONTEXT ( 3 ) GLOBAL_UNCERTAINTY_ASSIGNED_CONTEXT ( ( #167 ) ) GLOBAL_UNIT_ASSIGNED_CONTEXT ( ( #188, #341, #159 ) ) REPRESENTATION_CONTEXT ( 'NONE', 'WORKASPACE' ) );
#52 = ORIENTED_EDGE ( 'NONE', *, *, #83, .T. ) ;
#53 = DIRECTION ( 'NONE',  ( 0.0000000000000000000, 0.0000000000000000000, 1.000000000000000000 ) ) ;
#54 = SURFACE_SIDE_STYLE ('',( #122 ) ) ;
#55 = CARTESIAN_POINT ( 'NONE',  ( 28.15304347957312100, 0.0000000000000000000, 2.127838119875573200E-015 ) ) ;
#56 = ORIENTED_EDGE ( 'NONE', *, *, #124, .T. ) ;
#57 = COLOUR_RGB ( '',1.000000000000000000, 1.000000000000000000, 1.000000000000000000 ) ;
#58 = DIRECTION ( 'NONE',  ( -0.0000000000000000000, 1.000000000000000000, 1.224646799147353200E-016 ) ) ;
#59 = AXIS2_PLACEMENT_3D ( 'NONE', #184, #50, #310 ) ;
#60 = DIRECTION ( 'NONE',  ( 0.0000000000000000000, 0.0000000000000000000, -1.000000000000000000 ) ) ;
#61 = ORIENTED_EDGE ( 'NONE', *, *, #236, .F. ) ;
#62 = CIRCLE ( 'NONE', #19, 8.000000000000000000 ) ;
#63 = DIRECTION ( 'NONE',  ( 0.0000000000000000000, -1.000000000000000000, 0.0000000000000000000 ) ) ;
#64 = DIRECTION ( 'NONE',  ( -1.000000000000000000, -0.0000000000000000000, -0.0000000000000000000 ) ) ;
#65 = ORIENTED_EDGE ( 'NONE', *, *, #225, .F. ) ;
#66 = UNCERTAINTY_MEASURE_WITH_UNIT (LENGTH_MEASURE( 1.000000000000000100E-005 ), #68, 'distance_accuracy_value', 'NONE');
#67 = SPHERICAL_SURFACE ( 'NONE', #166, 80.70900000000000300 ) ;
#68 =( LENGTH_UNIT ( ) NAMED_UNIT ( * ) SI_UNIT ( .MILLI., .METRE. ) );
#69 = SURFACE_STYLE_USAGE ( .BOTH. , #302 ) ;
#70 = EDGE_CURVE ( 'NONE', #230, #196, #215, .T. ) ;
#71 = MECHANICAL_DESIGN_GEOMETRIC_PRESENTATION_REPRESENTATION (  '', ( #34 ), #85 ) ;
#72 = EDGE_LOOP ( 'NONE', ( #56, #109, #61, #247 ) ) ;
#73 = SPHERICAL_SURFACE ( 'NONE', #254, 25.70799999999999500 ) ;
#74 = FACE_OUTER_BOUND ( 'NONE', #137, .T. ) ;
#75 = EDGE_CURVE ( 'NONE', #168, #295, #273, .T. ) ;
#76 = DIRECTION ( 'NONE',  ( 0.0000000000000000000, -1.224646799147353200E-016, 1.000000000000000000 ) ) ;
#77 = VERTEX_POINT ( 'NONE', #242 ) ;
#78 = CIRCLE ( 'NONE', #328, 39.43500000000000900 ) ;
#79 = ADVANCED_FACE ( 'NONE', ( #134 ), #67, .T. ) ;
#80 = CARTESIAN_POINT ( 'NONE',  ( -0.5519199926577972300, 9.797174393178821700E-016, -7.999999999999996400 ) ) ;
#81 = VERTEX_POINT ( 'NONE', #31 ) ;
#82 = CIRCLE ( 'NONE', #108, 25.70799999999999500 ) ;
#83 = EDGE_CURVE ( 'NONE', #248, #196, #197, .T. ) ;
#84 = CIRCLE ( 'NONE', #339, 8.000000000000000000 ) ;
#85 =( GEOMETRIC_REPRESENTATION_CONTEXT ( 3 ) GLOBAL_UNCERTAINTY_ASSIGNED_CONTEXT ( ( #66 ) ) GLOBAL_UNIT_ASSIGNED_CONTEXT ( ( #68, #251, #90 ) ) REPRESENTATION_CONTEXT ( 'NONE', 'WORKASPACE' ) );
#86 = CARTESIAN_POINT ( 'NONE',  ( 67.58804347957313000, 0.0000000000000000000, -2.868592063432215000E-016 ) ) ;
#87 = VERTEX_POINT ( 'NONE', #55 ) ;
#88 = ORIENTED_EDGE ( 'NONE', *, *, #283, .F. ) ;
#89 = DIRECTION ( 'NONE',  ( 0.0000000000000000000, 0.0000000000000000000, 1.000000000000000000 ) ) ;
#90 =( NAMED_UNIT ( * ) SI_UNIT ( $, .STERADIAN. ) SOLID_ANGLE_UNIT ( ) );
#91 = AXIS2_PLACEMENT_3D ( 'NONE', #25, #187, #340 ) ;
#92 =( NAMED_UNIT ( * ) SI_UNIT ( $, .STERADIAN. ) SOLID_ANGLE_UNIT ( ) );
#93 = CIRCLE ( 'NONE', #199, 7.999999999999992900 ) ;
#94 = CYLINDRICAL_SURFACE ( 'NONE', #334, 7.999999999999996400 ) ;
#95 = ORIENTED_EDGE ( 'NONE', *, *, #293, .T. ) ;
#96 = SHAPE_DEFINITION_REPRESENTATION ( #325, #280 ) ;
#97 = DIRECTION ( 'NONE',  ( 0.0000000000000000000, 1.000000000000000000, 0.0000000000000000000 ) ) ;
#98 = LINE ( 'NONE', #132, #33 ) ;
#99 = DIRECTION ( 'NONE',  ( -0.0000000000000000000, 1.000000000000000000, 1.224646799147353200E-016 ) ) ;
#100 = DIRECTION ( 'NONE',  ( 0.0000000000000000000, 0.0000000000000000000, 1.000000000000000000 ) ) ;
#101 = ADVANCED_FACE ( 'NONE', ( #331 ), #343, .F. ) ;
#102 = DIRECTION ( 'NONE',  ( -1.000000000000000000, -0.0000000000000000000, -0.0000000000000000000 ) ) ;
#103 = ORIENTED_EDGE ( 'NONE', *, *, #299, .F. ) ;
#104 = DIRECTION ( 'NONE',  ( -1.000000000000000000, -0.0000000000000000000, -0.0000000000000000000 ) ) ;
#105 = ORIENTED_EDGE ( 'NONE', *, *, #225, .T. ) ;
#106 = CARTESIAN_POINT ( 'NONE',  ( 67.58804347957313000, 0.0000000000000000000, -2.868592063432215000E-016 ) ) ;
#107 = CARTESIAN_POINT ( 'NONE',  ( -0.5519199926577972300, 0.0000000000000000000, 7.999999999999996400 ) ) ;
#108 = AXIS2_PLACEMENT_3D ( 'NONE', #307, #258, #233 ) ;
#109 = ORIENTED_EDGE ( 'NONE', *, *, #204, .T. ) ;
#110 = CARTESIAN_POINT ( 'NONE',  ( 67.58804347957313000, 0.0000000000000000000, -2.868592063432215000E-016 ) ) ;
#111 = AXIS2_PLACEMENT_3D ( 'NONE', #131, #102, #53 ) ;
#112 = ORIENTED_EDGE ( 'NONE', *, *, #180, .F. ) ;
#113 = DIRECTION ( 'NONE',  ( 0.0000000000000000000, -1.000000000000000000, 0.0000000000000000000 ) ) ;
#114 = MANIFOLD_SOLID_BREP ( 'Ðý×ª1', #35 ) ;
#115 = CARTESIAN_POINT ( 'NONE',  ( 28.97303053123915400, 0.0000000000000000000, 0.0000000000000000000 ) ) ;
#116 = ORIENTED_EDGE ( 'NONE', *, *, #180, .T. ) ;
#117 =( NAMED_UNIT ( * ) PLANE_ANGLE_UNIT ( ) SI_UNIT ( $, .RADIAN. ) );
#118 = STYLED_ITEM ( 'NONE', ( #313 ), #280 ) ;
#119 = EDGE_LOOP ( 'NONE', ( #239, #222, #194 ) ) ;
#120 = EDGE_CURVE ( 'NONE', #295, #81, #98, .T. ) ;
#121 = UNCERTAINTY_MEASURE_WITH_UNIT (LENGTH_MEASURE( 1.000000000000000100E-005 ), #40, 'distance_accuracy_value', 'NONE');
#122 = SURFACE_STYLE_FILL_AREA ( #214 ) ;
#123 = DIRECTION ( 'NONE',  ( 0.0000000000000000000, 0.0000000000000000000, 1.000000000000000000 ) ) ;
#124 = EDGE_CURVE ( 'NONE', #230, #77, #244, .T. ) ;
#125 = DIRECTION ( 'NONE',  ( 0.0000000000000000000, 0.0000000000000000000, 1.000000000000000000 ) ) ;
#126 = CARTESIAN_POINT ( 'NONE',  ( 33.01557864731847800, 0.0000000000000000000, 7.999999999999992900 ) ) ;
#127 = ADVANCED_FACE ( 'NONE', ( #172 ), #232, .T. ) ;
#128 = CARTESIAN_POINT ( 'NONE',  ( 33.01557864731847800, 0.0000000000000000000, 0.0000000000000000000 ) ) ;
#129 = ORIENTED_EDGE ( 'NONE', *, *, #70, .T. ) ;
#130 = CIRCLE ( 'NONE', #346, 39.43500000000000900 ) ;
#131 = CARTESIAN_POINT ( 'NONE',  ( -0.5519199926577972300, 0.0000000000000000000, 0.0000000000000000000 ) ) ;
#132 = CARTESIAN_POINT ( 'NONE',  ( -9.702612178336682500, 9.797174393178825700E-016, -8.000000000000000000 ) ) ;
#133 = DIRECTION ( 'NONE',  ( 0.0000000000000000000, 0.0000000000000000000, 1.000000000000000000 ) ) ;
#134 = FACE_OUTER_BOUND ( 'NONE', #270, .T. ) ;
#135 = PRODUCT_DEFINITION_CONTEXT ( 'detailed design', #42, 'design' ) ;
#136 = PRESENTATION_LAYER_ASSIGNMENT (  '', '', ( #118 ) ) ;
#137 = EDGE_LOOP ( 'NONE', ( #311, #95, #65 ) ) ;
#138 = SPHERICAL_SURFACE ( 'NONE', #149, 80.70900000000000300 ) ;
#139 = DIRECTION ( 'NONE',  ( -1.000000000000000000, -0.0000000000000000000, -0.0000000000000000000 ) ) ;
#140 = EDGE_LOOP ( 'NONE', ( #179, #144, #112 ) ) ;
#141 = SPHERICAL_SURFACE ( 'NONE', #164, 25.70799999999999800 ) ;
#142 = FILL_AREA_STYLE_COLOUR ( '', #30 ) ;
#143 = AXIS2_PLACEMENT_3D ( 'NONE', #106, #212, #158 ) ;
#144 = ORIENTED_EDGE ( 'NONE', *, *, #283, .T. ) ;
#145 = FACE_OUTER_BOUND ( 'NONE', #140, .T. ) ;
#146 = CIRCLE ( 'NONE', #318, 8.000000000000000000 ) ;
#147 = EDGE_LOOP ( 'NONE', ( #36, #276, #103 ) ) ;
#148 = SPHERICAL_SURFACE ( 'NONE', #260, 25.70799999999999800 ) ;
#149 = AXIS2_PLACEMENT_3D ( 'NONE', #282, #97, #231 ) ;
#150 = PRODUCT ( '145034', '145034', '', ( #200 ) ) ;
#151 = DIRECTION ( 'NONE',  ( 0.0000000000000000000, 0.0000000000000000000, -1.000000000000000000 ) ) ;
#152 = CARTESIAN_POINT ( 'NONE',  ( 30.55660634403188100, 0.0000000000000000000, 0.0000000000000000000 ) ) ;
#153 = DIRECTION ( 'NONE',  ( -1.000000000000000000, -0.0000000000000000000, -0.0000000000000000000 ) ) ;
#154 = FACE_OUTER_BOUND ( 'NONE', #252, .T. ) ;
#155 = ADVANCED_FACE ( 'NONE', ( #298 ), #227, .T. ) ;
#156 = MECHANICAL_DESIGN_GEOMETRIC_PRESENTATION_REPRESENTATION (  '', ( #118 ), #174 ) ;
#157 = DIRECTION ( 'NONE',  ( 0.0000000000000000000, 0.0000000000000000000, 1.000000000000000000 ) ) ;
#158 = DIRECTION ( 'NONE',  ( 0.0000000000000000000, 0.0000000000000000000, 1.000000000000000000 ) ) ;
#159 =( NAMED_UNIT ( * ) SI_UNIT ( $, .STERADIAN. ) SOLID_ANGLE_UNIT ( ) );
#160 = VERTEX_POINT ( 'NONE', #263 ) ;
#161 = ORIENTED_EDGE ( 'NONE', *, *, #204, .F. ) ;
#162 = DIRECTION ( 'NONE',  ( 0.0000000000000000000, 0.0000000000000000000, 1.000000000000000000 ) ) ;
#163 = DIRECTION ( 'NONE',  ( -0.0000000000000000000, 1.000000000000000000, 1.224646799147353200E-016 ) ) ;
#164 = AXIS2_PLACEMENT_3D ( 'NONE', #317, #189, #192 ) ;
#165 = FACE_OUTER_BOUND ( 'NONE', #290, .T. ) ;
#166 = AXIS2_PLACEMENT_3D ( 'NONE', #347, #190, #291 ) ;
#167 = UNCERTAINTY_MEASURE_WITH_UNIT (LENGTH_MEASURE( 1.000000000000000100E-005 ), #188, 'distance_accuracy_value', 'NONE');
#168 = VERTEX_POINT ( 'NONE', #237 ) ;
#169 = PRESENTATION_LAYER_ASSIGNMENT (  '', '', ( #21 ) ) ;
#170 = COLOUR_RGB ( '',1.000000000000000000, 1.000000000000000000, 1.000000000000000000 ) ;
#171 = FILL_AREA_STYLE_COLOUR ( '', #170 ) ;
#172 = FACE_OUTER_BOUND ( 'NONE', #262, .T. ) ;
#173 = DIRECTION ( 'NONE',  ( 0.0000000000000000000, 0.0000000000000000000, 1.000000000000000000 ) ) ;
#174 =( GEOMETRIC_REPRESENTATION_CONTEXT ( 3 ) GLOBAL_UNCERTAINTY_ASSIGNED_CONTEXT ( ( #256 ) ) GLOBAL_UNIT_ASSIGNED_CONTEXT ( ( #274, #117, #297 ) ) REPRESENTATION_CONTEXT ( 'NONE', 'WORKASPACE' ) );
#175 = ORIENTED_EDGE ( 'NONE', *, *, #220, .F. ) ;
#176 = ORIENTED_EDGE ( 'NONE', *, *, #28, .F. ) ;
#177 = SURFACE_STYLE_FILL_AREA ( #32 ) ;
#178 = CARTESIAN_POINT ( 'NONE',  ( 30.55660634403188100, 9.797174393178825700E-016, -8.000000000000000000 ) ) ;
#179 = ORIENTED_EDGE ( 'NONE', *, *, #43, .F. ) ;
#180 = EDGE_CURVE ( 'NONE', #77, #230, #93, .T. ) ;
#181 = DIRECTION ( 'NONE',  ( 0.0000000000000000000, 1.000000000000000000, 0.0000000000000000000 ) ) ;
#182 = AXIS2_PLACEMENT_3D ( 'NONE', #330, #113, #151 ) ;
#183 = CARTESIAN_POINT ( 'NONE',  ( -9.702612178336682500, 0.0000000000000000000, 8.000000000000000000 ) ) ;
#184 = CARTESIAN_POINT ( 'NONE',  ( -9.702612178336682500, 0.0000000000000000000, 0.0000000000000000000 ) ) ;
#185 = ADVANCED_FACE ( 'NONE', ( #165 ), #14, .T. ) ;
#186 = ORIENTED_EDGE ( 'NONE', *, *, #299, .T. ) ;
#187 = DIRECTION ( 'NONE',  ( -1.000000000000000000, -0.0000000000000000000, -0.0000000000000000000 ) ) ;
#188 =( LENGTH_UNIT ( ) NAMED_UNIT ( * ) SI_UNIT ( .MILLI., .METRE. ) );
#189 = DIRECTION ( 'NONE',  ( 0.0000000000000000000, 1.000000000000000000, 0.0000000000000000000 ) ) ;
#190 = DIRECTION ( 'NONE',  ( 0.0000000000000000000, 1.000000000000000000, 0.0000000000000000000 ) ) ;
#191 = EDGE_CURVE ( 'NONE', #81, #45, #84, .T. ) ;
#192 = DIRECTION ( 'NONE',  ( 0.0000000000000000000, 0.0000000000000000000, 1.000000000000000000 ) ) ;
#193 = CARTESIAN_POINT ( 'NONE',  ( 28.97303053123915400, 0.0000000000000000000, 8.000000000000000000 ) ) ;
#194 = ORIENTED_EDGE ( 'NONE', *, *, #236, .T. ) ;
#195 = DIRECTION ( 'NONE',  ( 0.0000000000000000000, 0.0000000000000000000, 1.000000000000000000 ) ) ;
#196 = VERTEX_POINT ( 'NONE', #287 ) ;
#197 = CIRCLE ( 'NONE', #201, 8.000000000000001800 ) ;
#198 =( NAMED_UNIT ( * ) PLANE_ANGLE_UNIT ( ) SI_UNIT ( $, .RADIAN. ) );
#199 = AXIS2_PLACEMENT_3D ( 'NONE', #128, #338, #157 ) ;
#200 = PRODUCT_CONTEXT ( 'NONE', #300, 'mechanical' ) ;
#201 = AXIS2_PLACEMENT_3D ( 'NONE', #29, #342, #162 ) ;
#202 = ORIENTED_EDGE ( 'NONE', *, *, #124, .F. ) ;
#203 = CIRCLE ( 'NONE', #182, 80.70900000000000300 ) ;
#204 = EDGE_CURVE ( 'NONE', #77, #248, #286, .T. ) ;
#205 = ORIENTED_EDGE ( 'NONE', *, *, #324, .F. ) ;
#206 = VECTOR ( 'NONE', #316, 1000.000000000000000 ) ;
#207 = MECHANICAL_DESIGN_GEOMETRIC_PRESENTATION_REPRESENTATION (  '', ( #21 ), #51 ) ;
#208 = DIRECTION ( 'NONE',  ( -1.000000000000000000, -0.0000000000000000000, -0.0000000000000000000 ) ) ;
#209 = ORIENTED_EDGE ( 'NONE', *, *, #228, .T. ) ;
#210 = VECTOR ( 'NONE', #281, 1000.000000000000000 ) ;
#211 = ADVANCED_FACE ( 'NONE', ( #154 ), #3, .T. ) ;
#212 = DIRECTION ( 'NONE',  ( 0.0000000000000000000, 1.000000000000000000, 0.0000000000000000000 ) ) ;
#213 = DIRECTION ( 'NONE',  ( 0.0000000000000000000, -1.000000000000000000, 0.0000000000000000000 ) ) ;
#214 = FILL_AREA_STYLE ('',( #289 ) ) ;
#215 = LINE ( 'NONE', #107, #206 ) ;
#216 = DIRECTION ( 'NONE',  ( 0.0000000000000000000, 1.000000000000000000, 0.0000000000000000000 ) ) ;
#217 = DIRECTION ( 'NONE',  ( 0.0000000000000000000, -1.224646799147353200E-016, 1.000000000000000000 ) ) ;
#218 = EDGE_LOOP ( 'NONE', ( #18, #315, #336 ) ) ;
#219 = VECTOR ( 'NONE', #272, 1000.000000000000000 ) ;
#220 = EDGE_CURVE ( 'NONE', #81, #87, #78, .T. ) ;
#221 = DIRECTION ( 'NONE',  ( 0.0000000000000000000, 0.0000000000000000000, -1.000000000000000000 ) ) ;
#222 = ORIENTED_EDGE ( 'NONE', *, *, #28, .T. ) ;
#223 = CIRCLE ( 'NONE', #17, 80.70900000000000300 ) ;
#224 = SURFACE_STYLE_USAGE ( .BOTH. , #39 ) ;
#225 = EDGE_CURVE ( 'NONE', #295, #319, #22, .T. ) ;
#226 = APPLICATION_PROTOCOL_DEFINITION ( 'draft international standard', 'automotive_design', 1998, #42 ) ;
#227 = CYLINDRICAL_SURFACE ( 'NONE', #111, 7.999999999999996400 ) ;
#228 = EDGE_CURVE ( 'NONE', #319, #45, #294, .T. ) ;
#229 = AXIS2_PLACEMENT_3D ( 'NONE', #323, #173, #11 ) ;
#230 = VERTEX_POINT ( 'NONE', #126 ) ;
#231 = DIRECTION ( 'NONE',  ( 0.0000000000000000000, 0.0000000000000000000, 1.000000000000000000 ) ) ;
#232 = SPHERICAL_SURFACE ( 'NONE', #143, 39.43500000000000900 ) ;
#233 = DIRECTION ( 'NONE',  ( 0.0000000000000000000, -1.224646799147353200E-016, 1.000000000000000000 ) ) ;
#234 = CARTESIAN_POINT ( 'NONE',  ( -9.702612178336682500, 0.0000000000000000000, 0.0000000000000000000 ) ) ;
#235 = ADVANCED_FACE ( 'NONE', ( #145 ), #138, .T. ) ;
#236 = EDGE_CURVE ( 'NONE', #196, #248, #277, .T. ) ;
#237 = CARTESIAN_POINT ( 'NONE',  ( 31.83304347957312400, 0.0000000000000000000, 1.547055941311870000E-015 ) ) ;
#238 = AXIS2_PLACEMENT_3D ( 'NONE', #345, #163, #314 ) ;
#239 = ORIENTED_EDGE ( 'NONE', *, *, #5, .F. ) ;
#240 = SURFACE_STYLE_FILL_AREA ( #9 ) ;
#241 = DIRECTION ( 'NONE',  ( 0.0000000000000000000, 1.000000000000000000, 0.0000000000000000000 ) ) ;
#242 = CARTESIAN_POINT ( 'NONE',  ( 33.01557864731847800, 9.797174393178819700E-016, -7.999999999999992900 ) ) ;
#243 = CARTESIAN_POINT ( 'NONE',  ( -47.29595652042688400, 0.0000000000000000000, 0.0000000000000000000 ) ) ;
#244 = CIRCLE ( 'NONE', #91, 7.999999999999992900 ) ;
#245 = PRODUCT_DEFINITION ( 'Î´Öª', '', #261, #135 ) ;
#246 = DIRECTION ( 'NONE',  ( 0.0000000000000000000, 1.000000000000000000, 0.0000000000000000000 ) ) ;
#247 = ORIENTED_EDGE ( 'NONE', *, *, #70, .F. ) ;
#248 = VERTEX_POINT ( 'NONE', #46 ) ;
#249 = AXIS2_PLACEMENT_3D ( 'NONE', #320, #4, #60 ) ;
#250 = DIRECTION ( 'NONE',  ( 0.0000000000000000000, 0.0000000000000000000, 1.000000000000000000 ) ) ;
#251 =( NAMED_UNIT ( * ) PLANE_ANGLE_UNIT ( ) SI_UNIT ( $, .RADIAN. ) );
#252 = EDGE_LOOP ( 'NONE', ( #186, #27, #205, #326 ) ) ;
#253 = ORIENTED_EDGE ( 'NONE', *, *, #191, .F. ) ;
#254 = AXIS2_PLACEMENT_3D ( 'NONE', #332, #181, #255 ) ;
#255 = DIRECTION ( 'NONE',  ( 0.0000000000000000000, 0.0000000000000000000, 1.000000000000000000 ) ) ;
#256 = UNCERTAINTY_MEASURE_WITH_UNIT (LENGTH_MEASURE( 1.000000000000000100E-005 ), #274, 'distance_accuracy_value', 'NONE');
#257 = AXIS2_PLACEMENT_3D ( 'NONE', #234, #139, #100 ) ;
#258 = DIRECTION ( 'NONE',  ( -0.0000000000000000000, 1.000000000000000000, 1.224646799147353200E-016 ) ) ;
#259 = ADVANCED_FACE ( 'NONE', ( #271 ), #73, .F. ) ;
#260 = AXIS2_PLACEMENT_3D ( 'NONE', #292, #216, #1 ) ;
#261 = PRODUCT_DEFINITION_FORMATION_WITH_SPECIFIED_SOURCE ( 'ÈÎºÎ', '', #150, .NOT_KNOWN. ) ;
#262 = EDGE_LOOP ( 'NONE', ( #175, #41, #2 ) ) ;
#263 = CARTESIAN_POINT ( 'NONE',  ( 33.41304347957311900, 0.0000000000000000000, 4.942000925619186500E-015 ) ) ;
#264 = AXIS2_PLACEMENT_3D ( 'NONE', #152, #305, #123 ) ;
#265 = DIRECTION ( 'NONE',  ( 0.0000000000000000000, 0.0000000000000000000, -1.000000000000000000 ) ) ;
#266 = CARTESIAN_POINT ( 'NONE',  ( 6.125043479573127700, 0.0000000000000000000, -2.710505431213761100E-017 ) ) ;
#267 = PRESENTATION_STYLE_ASSIGNMENT (( #26 ) ) ;
#268 = CARTESIAN_POINT ( 'NONE',  ( 31.83304347957312400, 0.0000000000000000000, 1.547055941311870000E-015 ) ) ;
#269 = FACE_OUTER_BOUND ( 'NONE', #218, .T. ) ;
#270 = EDGE_LOOP ( 'NONE', ( #88, #329, #202 ) ) ;
#271 = FACE_OUTER_BOUND ( 'NONE', #119, .T. ) ;
#272 = DIRECTION ( 'NONE',  ( -1.000000000000000000, -0.0000000000000000000, -0.0000000000000000000 ) ) ;
#273 = CIRCLE ( 'NONE', #238, 25.70799999999999800 ) ;
#274 =( LENGTH_UNIT ( ) NAMED_UNIT ( * ) SI_UNIT ( .MILLI., .METRE. ) );
#275 = AXIS2_PLACEMENT_3D ( 'NONE', #266, #241, #133 ) ;
#276 = ORIENTED_EDGE ( 'NONE', *, *, #75, .T. ) ;
#277 = CIRCLE ( 'NONE', #264, 8.000000000000001800 ) ;
#278 = PRODUCT_RELATED_PRODUCT_CATEGORY ( 'part', '', ( #150 ) ) ;
#279 = CIRCLE ( 'NONE', #312, 25.70799999999999500 ) ;
#280 = ADVANCED_BREP_SHAPE_REPRESENTATION ( '145034', ( #114, #344, #229 ), #321 ) ;
#281 = DIRECTION ( 'NONE',  ( -1.000000000000000000, -0.0000000000000000000, -0.0000000000000000000 ) ) ;
#282 = CARTESIAN_POINT ( 'NONE',  ( -47.29595652042688400, 0.0000000000000000000, 0.0000000000000000000 ) ) ;
#283 = EDGE_CURVE ( 'NONE', #160, #230, #203, .T. ) ;
#284 = CARTESIAN_POINT ( 'NONE',  ( 67.58804347957313000, 0.0000000000000000000, -2.868592063432215000E-016 ) ) ;
#285 = ORIENTED_EDGE ( 'NONE', *, *, #5, .T. ) ;
#286 = LINE ( 'NONE', #80, #219 ) ;
#287 = CARTESIAN_POINT ( 'NONE',  ( 30.55660634403188100, 0.0000000000000000000, 7.999999999999994700 ) ) ;
#288 = CARTESIAN_POINT ( 'NONE',  ( 6.125043479573127700, 0.0000000000000000000, -2.710505431213761100E-017 ) ) ;
#289 = FILL_AREA_STYLE_COLOUR ( '', #57 ) ;
#290 = EDGE_LOOP ( 'NONE', ( #44, #105, #209, #253 ) ) ;
#291 = DIRECTION ( 'NONE',  ( 0.0000000000000000000, 0.0000000000000000000, 1.000000000000000000 ) ) ;
#292 = CARTESIAN_POINT ( 'NONE',  ( 6.125043479573127700, 0.0000000000000000000, -2.710505431213761100E-017 ) ) ;
#293 = EDGE_CURVE ( 'NONE', #168, #319, #337, .T. ) ;
#294 = LINE ( 'NONE', #183, #210 ) ;
#295 = VERTEX_POINT ( 'NONE', #178 ) ;
#296 = DIRECTION ( 'NONE',  ( -1.000000000000000000, -0.0000000000000000000, -0.0000000000000000000 ) ) ;
#297 =( NAMED_UNIT ( * ) SI_UNIT ( $, .STERADIAN. ) SOLID_ANGLE_UNIT ( ) );
#298 = FACE_OUTER_BOUND ( 'NONE', #72, .T. ) ;
#299 = EDGE_CURVE ( 'NONE', #319, #295, #62, .T. ) ;
#300 = APPLICATION_CONTEXT ( 'automotive_design' ) ;
#301 = EDGE_LOOP ( 'NONE', ( #176, #285, #52 ) ) ;
#302 = SURFACE_SIDE_STYLE ('',( #177 ) ) ;
#303 = DIRECTION ( 'NONE',  ( -1.000000000000000000, -0.0000000000000000000, -0.0000000000000000000 ) ) ;
#304 = AXIS2_PLACEMENT_3D ( 'NONE', #333, #153, #125 ) ;
#305 = DIRECTION ( 'NONE',  ( -1.000000000000000000, -0.0000000000000000000, -0.0000000000000000000 ) ) ;
#306 = EDGE_LOOP ( 'NONE', ( #161, #116, #129, #322 ) ) ;
#307 = CARTESIAN_POINT ( 'NONE',  ( 6.125043479573127700, 0.0000000000000000000, -2.710505431213761100E-017 ) ) ;
#308 = EDGE_CURVE ( 'NONE', #45, #87, #130, .T. ) ;
#309 = ADVANCED_FACE ( 'NONE', ( #327 ), #94, .T. ) ;
#310 = DIRECTION ( 'NONE',  ( 0.0000000000000000000, 0.0000000000000000000, 1.000000000000000000 ) ) ;
#311 = ORIENTED_EDGE ( 'NONE', *, *, #75, .F. ) ;
#312 = AXIS2_PLACEMENT_3D ( 'NONE', #288, #213, #265 ) ;
#313 = PRESENTATION_STYLE_ASSIGNMENT (( #69 ) ) ;
#314 = DIRECTION ( 'NONE',  ( 0.0000000000000000000, -1.224646799147353200E-016, 1.000000000000000000 ) ) ;
#315 = ORIENTED_EDGE ( 'NONE', *, *, #220, .T. ) ;
#316 = DIRECTION ( 'NONE',  ( -1.000000000000000000, -0.0000000000000000000, -0.0000000000000000000 ) ) ;
#317 = CARTESIAN_POINT ( 'NONE',  ( 6.125043479573127700, 0.0000000000000000000, -2.710505431213761100E-017 ) ) ;
#318 = AXIS2_PLACEMENT_3D ( 'NONE', #115, #64, #250 ) ;
#319 = VERTEX_POINT ( 'NONE', #6 ) ;
#320 = CARTESIAN_POINT ( 'NONE',  ( 6.125043479573127700, 0.0000000000000000000, -2.710505431213761100E-017 ) ) ;
#321 =( GEOMETRIC_REPRESENTATION_CONTEXT ( 3 ) GLOBAL_UNCERTAINTY_ASSIGNED_CONTEXT ( ( #121 ) ) GLOBAL_UNIT_ASSIGNED_CONTEXT ( ( #40, #198, #92 ) ) REPRESENTATION_CONTEXT ( 'NONE', 'WORKASPACE' ) );
#322 = ORIENTED_EDGE ( 'NONE', *, *, #83, .F. ) ;
#323 = CARTESIAN_POINT ( 'NONE',  ( 0.0000000000000000000, 0.0000000000000000000, 0.0000000000000000000 ) ) ;
#324 = EDGE_CURVE ( 'NONE', #45, #81, #146, .T. ) ;
#325 = PRODUCT_DEFINITION_SHAPE ( 'NONE', 'NONE',  #245 ) ;
#326 = ORIENTED_EDGE ( 'NONE', *, *, #228, .F. ) ;
#327 = FACE_OUTER_BOUND ( 'NONE', #306, .T. ) ;
#328 = AXIS2_PLACEMENT_3D ( 'NONE', #284, #99, #76 ) ;
#329 = ORIENTED_EDGE ( 'NONE', *, *, #43, .T. ) ;
#330 = CARTESIAN_POINT ( 'NONE',  ( -47.29595652042688400, 0.0000000000000000000, 0.0000000000000000000 ) ) ;
#331 = FACE_OUTER_BOUND ( 'NONE', #301, .T. ) ;
#332 = CARTESIAN_POINT ( 'NONE',  ( 6.125043479573127700, 0.0000000000000000000, -2.710505431213761100E-017 ) ) ;
#333 = CARTESIAN_POINT ( 'NONE',  ( 30.55660634403188100, 0.0000000000000000000, 0.0000000000000000000 ) ) ;
#334 = AXIS2_PLACEMENT_3D ( 'NONE', #37, #303, #20 ) ;
#335 = ADVANCED_FACE ( 'NONE', ( #269 ), #16, .T. ) ;
#336 = ORIENTED_EDGE ( 'NONE', *, *, #308, .F. ) ;
#337 = CIRCLE ( 'NONE', #249, 25.70799999999999800 ) ;
#338 = DIRECTION ( 'NONE',  ( -1.000000000000000000, -0.0000000000000000000, -0.0000000000000000000 ) ) ;
#339 = AXIS2_PLACEMENT_3D ( 'NONE', #49, #208, #23 ) ;
#340 = DIRECTION ( 'NONE',  ( 0.0000000000000000000, 0.0000000000000000000, 1.000000000000000000 ) ) ;
#341 =( NAMED_UNIT ( * ) PLANE_ANGLE_UNIT ( ) SI_UNIT ( $, .RADIAN. ) );
#342 = DIRECTION ( 'NONE',  ( -1.000000000000000000, -0.0000000000000000000, -0.0000000000000000000 ) ) ;
#343 = SPHERICAL_SURFACE ( 'NONE', #275, 25.70799999999999500 ) ;
#344 = MANIFOLD_SOLID_BREP ( 'Ðý×ª3', #7 ) ;
#345 = CARTESIAN_POINT ( 'NONE',  ( 6.125043479573127700, 0.0000000000000000000, -2.710505431213761100E-017 ) ) ;
#346 = AXIS2_PLACEMENT_3D ( 'NONE', #86, #63, #221 ) ;
#347 = CARTESIAN_POINT ( 'NONE',  ( -47.29595652042688400, 0.0000000000000000000, 0.0000000000000000000 ) ) ;
ENDSEC;
END-ISO-10303-21;
