ISO-10303-21;
HEADER;
FILE_DESCRIPTION (( 'STEP AP214' ),
    '1' );
FILE_NAME ('145031.STEP',
    '2019-05-11T03:21:31',
    ( 'user' ),
    ( 'Î¢ÈíÖÐ¹ú' ),
    'SwSTEP 2.0',
    'SolidWorks 2016',
    '' );
FILE_SCHEMA (( 'AUTOMOTIVE_DESIGN' ));
ENDSEC;

DATA;
#1 = FILL_AREA_STYLE_COLOUR ( '', #116 ) ;
#2 = AXIS2_PLACEMENT_3D ( 'NONE', #89, #195, #153 ) ;
#3 = CARTESIAN_POINT ( 'NONE',  ( 6.125043479573127700, 0.0000000000000000000, -2.710505431213761100E-017 ) ) ;
#4 = FACE_OUTER_BOUND ( 'NONE', #57, .T. ) ;
#5 = DIRECTION ( 'NONE',  ( 0.0000000000000000000, 1.000000000000000000, 0.0000000000000000000 ) ) ;
#6 = DIRECTION ( 'NONE',  ( 0.0000000000000000000, 0.0000000000000000000, 1.000000000000000000 ) ) ;
#7 = ORIENTED_EDGE ( 'NONE', *, *, #333, .T. ) ;
#8 = ORIENTED_EDGE ( 'NONE', *, *, #243, .F. ) ;
#9 = FILL_AREA_STYLE ('',( #320 ) ) ;
#10 =( GEOMETRIC_REPRESENTATION_CONTEXT ( 3 ) GLOBAL_UNCERTAINTY_ASSIGNED_CONTEXT ( ( #182 ) ) GLOBAL_UNIT_ASSIGNED_CONTEXT ( ( #64, #286, #271 ) ) REPRESENTATION_CONTEXT ( 'NONE', 'WORKASPACE' ) );
#11 = CYLINDRICAL_SURFACE ( 'NONE', #199, 7.999999999999992900 ) ;
#12 = DIRECTION ( 'NONE',  ( 0.0000000000000000000, 0.0000000000000000000, 1.000000000000000000 ) ) ;
#13 = CARTESIAN_POINT ( 'NONE',  ( -0.5519199926577972300, 0.0000000000000000000, 0.0000000000000000000 ) ) ;
#14 = UNCERTAINTY_MEASURE_WITH_UNIT (LENGTH_MEASURE( 1.000000000000000100E-005 ), #178, 'distance_accuracy_value', 'NONE');
#15 = EDGE_CURVE ( 'NONE', #124, #162, #24, .T. ) ;
#16 = ORIENTED_EDGE ( 'NONE', *, *, #63, .T. ) ;
#17 = CARTESIAN_POINT ( 'NONE',  ( -9.702612178336682500, 9.797174393178823700E-016, -7.999999999999998200 ) ) ;
#18 = DIRECTION ( 'NONE',  ( 0.0000000000000000000, 0.0000000000000000000, 1.000000000000000000 ) ) ;
#19 = LINE ( 'NONE', #133, #95 ) ;
#20 = AXIS2_PLACEMENT_3D ( 'NONE', #94, #306, #161 ) ;
#21 = CARTESIAN_POINT ( 'NONE',  ( -0.5519199926577972300, 9.797174393178817800E-016, -7.999999999999992900 ) ) ;
#22 = EDGE_CURVE ( 'NONE', #91, #172, #321, .T. ) ;
#23 = ORIENTED_EDGE ( 'NONE', *, *, #37, .F. ) ;
#24 = CIRCLE ( 'NONE', #155, 7.999999999999994700 ) ;
#25 = AXIS2_PLACEMENT_3D ( 'NONE', #13, #156, #298 ) ;
#26 = DIRECTION ( 'NONE',  ( -1.000000000000000000, -0.0000000000000000000, -0.0000000000000000000 ) ) ;
#27 = EDGE_LOOP ( 'NONE', ( #99, #277, #163, #269 ) ) ;
#28 = CIRCLE ( 'NONE', #164, 14.44699999999999600 ) ;
#29 = DIRECTION ( 'NONE',  ( -0.0000000000000000000, 1.000000000000000000, 1.224646799147353200E-016 ) ) ;
#30 = SHAPE_DEFINITION_REPRESENTATION ( #130, #302 ) ;
#31 = AXIS2_PLACEMENT_3D ( 'NONE', #329, #299, #70 ) ;
#32 = VECTOR ( 'NONE', #310, 1000.000000000000000 ) ;
#33 = AXIS2_PLACEMENT_3D ( 'NONE', #226, #324, #55 ) ;
#34 = DIRECTION ( 'NONE',  ( 0.0000000000000000000, -1.224646799147353200E-016, 1.000000000000000000 ) ) ;
#35 = FACE_OUTER_BOUND ( 'NONE', #330, .T. ) ;
#36 = DIRECTION ( 'NONE',  ( 0.0000000000000000000, 1.000000000000000000, 0.0000000000000000000 ) ) ;
#37 = EDGE_CURVE ( 'NONE', #331, #162, #28, .T. ) ;
#38 = EDGE_CURVE ( 'NONE', #162, #124, #304, .T. ) ;
#39 = FACE_OUTER_BOUND ( 'NONE', #46, .T. ) ;
#40 = DIRECTION ( 'NONE',  ( 0.0000000000000000000, 0.0000000000000000000, 1.000000000000000000 ) ) ;
#41 = VERTEX_POINT ( 'NONE', #323 ) ;
#42 = LINE ( 'NONE', #21, #32 ) ;
#43 = DIRECTION ( 'NONE',  ( 0.0000000000000000000, 0.0000000000000000000, -1.000000000000000000 ) ) ;
#44 = DIRECTION ( 'NONE',  ( 0.0000000000000000000, 0.0000000000000000000, -1.000000000000000000 ) ) ;
#45 = EDGE_CURVE ( 'NONE', #212, #124, #19, .T. ) ;
#46 = EDGE_LOOP ( 'NONE', ( #146, #75, #191 ) ) ;
#47 = EDGE_LOOP ( 'NONE', ( #23, #185, #301 ) ) ;
#48 = EDGE_CURVE ( 'NONE', #331, #124, #166, .T. ) ;
#49 = ADVANCED_FACE ( 'NONE', ( #236 ), #238, .T. ) ;
#50 = DIRECTION ( 'NONE',  ( 0.0000000000000000000, 1.000000000000000000, 0.0000000000000000000 ) ) ;
#51 = ADVANCED_FACE ( 'NONE', ( #159 ), #11, .T. ) ;
#52 = STYLED_ITEM ( 'NONE', ( #208 ), #143 ) ;
#53 = CARTESIAN_POINT ( 'NONE',  ( 18.15483188170223600, 0.0000000000000000000, 0.0000000000000000000 ) ) ;
#54 = ADVANCED_FACE ( 'NONE', ( #229 ), #87, .T. ) ;
#55 = DIRECTION ( 'NONE',  ( 0.0000000000000000000, 0.0000000000000000000, 1.000000000000000000 ) ) ;
#56 = ORIENTED_EDGE ( 'NONE', *, *, #243, .T. ) ;
#57 = EDGE_LOOP ( 'NONE', ( #309, #176, #339 ) ) ;
#58 = DIRECTION ( 'NONE',  ( 0.0000000000000000000, 0.0000000000000000000, 1.000000000000000000 ) ) ;
#59 = EDGE_CURVE ( 'NONE', #212, #152, #296, .T. ) ;
#60 = DIRECTION ( 'NONE',  ( -1.000000000000000000, -0.0000000000000000000, -0.0000000000000000000 ) ) ;
#61 = PRODUCT_DEFINITION_FORMATION_WITH_SPECIFIED_SOURCE ( 'ÈÎºÎ', '', #179, .NOT_KNOWN. ) ;
#62 = CARTESIAN_POINT ( 'NONE',  ( 21.64235051385232100, 0.0000000000000000000, 0.0000000000000000000 ) ) ;
#63 = EDGE_CURVE ( 'NONE', #308, #152, #284, .T. ) ;
#64 =( LENGTH_UNIT ( ) NAMED_UNIT ( * ) SI_UNIT ( .MILLI., .METRE. ) );
#65 = FACE_OUTER_BOUND ( 'NONE', #257, .T. ) ;
#66 = EDGE_CURVE ( 'NONE', #232, #281, #220, .T. ) ;
#67 = ORIENTED_EDGE ( 'NONE', *, *, #66, .F. ) ;
#68 = MECHANICAL_DESIGN_GEOMETRIC_PRESENTATION_REPRESENTATION (  '', ( #237 ), #268 ) ;
#69 = PRODUCT_CONTEXT ( 'NONE', #312, 'mechanical' ) ;
#70 = DIRECTION ( 'NONE',  ( 0.0000000000000000000, -1.224646799147353500E-016, 1.000000000000000000 ) ) ;
#71 = VECTOR ( 'NONE', #197, 1000.000000000000000 ) ;
#72 = CARTESIAN_POINT ( 'NONE',  ( 18.15483188170223600, 0.0000000000000000000, 7.999999999999992900 ) ) ;
#73 = AXIS2_PLACEMENT_3D ( 'NONE', #249, #60, #165 ) ;
#74 = ADVANCED_FACE ( 'NONE', ( #4 ), #79, .T. ) ;
#75 = ORIENTED_EDGE ( 'NONE', *, *, #227, .T. ) ;
#76 = SURFACE_SIDE_STYLE ('',( #108 ) ) ;
#77 = FACE_OUTER_BOUND ( 'NONE', #175, .T. ) ;
#78 = AXIS2_PLACEMENT_3D ( 'NONE', #279, #275, #190 ) ;
#79 = SPHERICAL_SURFACE ( 'NONE', #287, 14.44699999999999700 ) ;
#80 = DIRECTION ( 'NONE',  ( -0.0000000000000000000, 1.000000000000000000, 1.224646799147353200E-016 ) ) ;
#81 = UNCERTAINTY_MEASURE_WITH_UNIT (LENGTH_MEASURE( 1.000000000000000100E-005 ), #92, 'distance_accuracy_value', 'NONE');
#82 = CARTESIAN_POINT ( 'NONE',  ( 18.15483188170223600, 9.797174393178819700E-016, -7.999999999999992900 ) ) ;
#83 = ORIENTED_EDGE ( 'NONE', *, *, #154, .F. ) ;
#84 = DIRECTION ( 'NONE',  ( 0.0000000000000000000, 1.000000000000000000, 0.0000000000000000000 ) ) ;
#85 = PRESENTATION_LAYER_ASSIGNMENT (  '', '', ( #237 ) ) ;
#86 = CYLINDRICAL_SURFACE ( 'NONE', #307, 7.999999999999998200 ) ;
#87 = SPHERICAL_SURFACE ( 'NONE', #111, 14.44699999999999700 ) ;
#88 = SURFACE_STYLE_USAGE ( .BOTH. , #76 ) ;
#89 = CARTESIAN_POINT ( 'NONE',  ( -17.47395652042688100, 0.0000000000000000000, 0.0000000000000000000 ) ) ;
#90 = ORIENTED_EDGE ( 'NONE', *, *, #22, .T. ) ;
#91 = VERTEX_POINT ( 'NONE', #206 ) ;
#92 =( LENGTH_UNIT ( ) NAMED_UNIT ( * ) SI_UNIT ( .MILLI., .METRE. ) );
#93 = AXIS2_PLACEMENT_3D ( 'NONE', #253, #103, #187 ) ;
#94 = CARTESIAN_POINT ( 'NONE',  ( -9.702612178336682500, 0.0000000000000000000, 0.0000000000000000000 ) ) ;
#95 = VECTOR ( 'NONE', #293, 1000.000000000000000 ) ;
#96 = AXIS2_PLACEMENT_3D ( 'NONE', #53, #266, #127 ) ;
#97 = CARTESIAN_POINT ( 'NONE',  ( 6.125043479573127700, 0.0000000000000000000, -2.710505431213761100E-017 ) ) ;
#98 = CIRCLE ( 'NONE', #340, 7.999999999999998200 ) ;
#99 = ORIENTED_EDGE ( 'NONE', *, *, #59, .T. ) ;
#100 = ORIENTED_EDGE ( 'NONE', *, *, #231, .F. ) ;
#101 = DIRECTION ( 'NONE',  ( 1.000000000000000000, 0.0000000000000000000, 0.0000000000000000000 ) ) ;
#102 = ORIENTED_EDGE ( 'NONE', *, *, #142, .F. ) ;
#103 = DIRECTION ( 'NONE',  ( 0.0000000000000000000, -1.000000000000000000, 0.0000000000000000000 ) ) ;
#104 = ORIENTED_EDGE ( 'NONE', *, *, #38, .F. ) ;
#105 = SPHERICAL_SURFACE ( 'NONE', #2, 39.92600000000000200 ) ;
#106 = CARTESIAN_POINT ( 'NONE',  ( 35.35804347957312600, 0.0000000000000000000, -8.576800627664493600E-016 ) ) ;
#107 = AXIS2_PLACEMENT_3D ( 'NONE', #160, #131, #151 ) ;
#108 = SURFACE_STYLE_FILL_AREA ( #9 ) ;
#109 = EDGE_LOOP ( 'NONE', ( #67, #290, #126 ) ) ;
#110 = CARTESIAN_POINT ( 'NONE',  ( -9.702612178336682500, 0.0000000000000000000, 7.999999999999998200 ) ) ;
#111 = AXIS2_PLACEMENT_3D ( 'NONE', #3, #5, #194 ) ;
#112 =( NAMED_UNIT ( * ) SI_UNIT ( $, .STERADIAN. ) SOLID_ANGLE_UNIT ( ) );
#113 = CIRCLE ( 'NONE', #78, 7.999999999999992900 ) ;
#114 = UNCERTAINTY_MEASURE_WITH_UNIT (LENGTH_MEASURE( 1.000000000000000100E-005 ), #144, 'distance_accuracy_value', 'NONE');
#115 = DIRECTION ( 'NONE',  ( -1.000000000000000000, -0.0000000000000000000, -0.0000000000000000000 ) ) ;
#116 = COLOUR_RGB ( '',1.000000000000000000, 1.000000000000000000, 1.000000000000000000 ) ;
#117 = EDGE_LOOP ( 'NONE', ( #83, #16, #318 ) ) ;
#118 = DIRECTION ( 'NONE',  ( 0.0000000000000000000, 0.0000000000000000000, -1.000000000000000000 ) ) ;
#119 = AXIS2_PLACEMENT_3D ( 'NONE', #289, #84, #272 ) ;
#120 = FACE_OUTER_BOUND ( 'NONE', #211, .T. ) ;
#121 = CARTESIAN_POINT ( 'NONE',  ( 6.125043479573127700, 0.0000000000000000000, -2.710505431213761100E-017 ) ) ;
#122 = AXIS2_PLACEMENT_3D ( 'NONE', #106, #316, #44 ) ;
#123 = FACE_OUTER_BOUND ( 'NONE', #245, .T. ) ;
#124 = VERTEX_POINT ( 'NONE', #72 ) ;
#125 = DIRECTION ( 'NONE',  ( 0.0000000000000000000, -1.000000000000000000, 0.0000000000000000000 ) ) ;
#126 = ORIENTED_EDGE ( 'NONE', *, *, #285, .F. ) ;
#127 = DIRECTION ( 'NONE',  ( 0.0000000000000000000, 0.0000000000000000000, 1.000000000000000000 ) ) ;
#128 = AXIS2_PLACEMENT_3D ( 'NONE', #334, #125, #118 ) ;
#129 = SURFACE_STYLE_FILL_AREA ( #260 ) ;
#130 = PRODUCT_DEFINITION_SHAPE ( 'NONE', 'NONE',  #137 ) ;
#131 = DIRECTION ( 'NONE',  ( -0.0000000000000000000, 1.000000000000000000, 1.224646799147353200E-016 ) ) ;
#132 = CARTESIAN_POINT ( 'NONE',  ( 0.0000000000000000000, 0.0000000000000000000, 0.0000000000000000000 ) ) ;
#133 = CARTESIAN_POINT ( 'NONE',  ( -0.5519199926577972300, 0.0000000000000000000, 7.999999999999992900 ) ) ;
#134 = EDGE_LOOP ( 'NONE', ( #192, #201, #147 ) ) ;
#135 = EDGE_CURVE ( 'NONE', #232, #300, #149, .T. ) ;
#136 = SURFACE_SIDE_STYLE ('',( #248 ) ) ;
#137 = PRODUCT_DEFINITION ( 'Î´Öª', '', #61, #332 ) ;
#138 =( NAMED_UNIT ( * ) PLANE_ANGLE_UNIT ( ) SI_UNIT ( $, .RADIAN. ) );
#139 = CARTESIAN_POINT ( 'NONE',  ( -0.5519199926577972300, 0.0000000000000000000, 0.0000000000000000000 ) ) ;
#140 = SPHERICAL_SURFACE ( 'NONE', #188, 14.44699999999999600 ) ;
#141 =( NAMED_UNIT ( * ) SI_UNIT ( $, .STERADIAN. ) SOLID_ANGLE_UNIT ( ) );
#142 = EDGE_CURVE ( 'NONE', #281, #172, #278, .T. ) ;
#143 = MANIFOLD_SOLID_BREP ( 'Ðý×ª1', #200 ) ;
#144 =( LENGTH_UNIT ( ) NAMED_UNIT ( * ) SI_UNIT ( .MILLI., .METRE. ) );
#145 = AXIS2_PLACEMENT_3D ( 'NONE', #62, #338, #230 ) ;
#146 = ORIENTED_EDGE ( 'NONE', *, *, #213, .F. ) ;
#147 = ORIENTED_EDGE ( 'NONE', *, *, #38, .T. ) ;
#148 = EDGE_CURVE ( 'NONE', #152, #212, #113, .T. ) ;
#149 = CIRCLE ( 'NONE', #150, 14.44699999999999700 ) ;
#150 = AXIS2_PLACEMENT_3D ( 'NONE', #261, #218, #43 ) ;
#151 = DIRECTION ( 'NONE',  ( 0.0000000000000000000, -1.224646799147353200E-016, 1.000000000000000000 ) ) ;
#152 = VERTEX_POINT ( 'NONE', #198 ) ;
#153 = DIRECTION ( 'NONE',  ( 0.0000000000000000000, 0.0000000000000000000, 1.000000000000000000 ) ) ;
#154 = EDGE_CURVE ( 'NONE', #308, #212, #343, .T. ) ;
#155 = AXIS2_PLACEMENT_3D ( 'NONE', #209, #233, #203 ) ;
#156 = DIRECTION ( 'NONE',  ( -1.000000000000000000, -0.0000000000000000000, -0.0000000000000000000 ) ) ;
#157 = PRESENTATION_STYLE_ASSIGNMENT (( #88 ) ) ;
#158 = CARTESIAN_POINT ( 'NONE',  ( -9.702612178336682500, 0.0000000000000000000, 0.0000000000000000000 ) ) ;
#159 = FACE_OUTER_BOUND ( 'NONE', #27, .T. ) ;
#160 = CARTESIAN_POINT ( 'NONE',  ( 35.35804347957312600, 0.0000000000000000000, -8.576800627664493600E-016 ) ) ;
#161 = DIRECTION ( 'NONE',  ( 0.0000000000000000000, 0.0000000000000000000, 1.000000000000000000 ) ) ;
#162 = VERTEX_POINT ( 'NONE', #82 ) ;
#163 = ORIENTED_EDGE ( 'NONE', *, *, #15, .F. ) ;
#164 = AXIS2_PLACEMENT_3D ( 'NONE', #196, #80, #34 ) ;
#165 = DIRECTION ( 'NONE',  ( 0.0000000000000000000, 0.0000000000000000000, 1.000000000000000000 ) ) ;
#166 = CIRCLE ( 'NONE', #128, 14.44699999999999600 ) ;
#167 = DIRECTION ( 'NONE',  ( 0.0000000000000000000, 1.000000000000000000, 0.0000000000000000000 ) ) ;
#168 = SURFACE_SIDE_STYLE ('',( #129 ) ) ;
#169 = AXIS2_PLACEMENT_3D ( 'NONE', #303, #259, #273 ) ;
#170 = CARTESIAN_POINT ( 'NONE',  ( 18.15483188170223600, 0.0000000000000000000, 7.999999999999998200 ) ) ;
#171 = ORIENTED_EDGE ( 'NONE', *, *, #148, .F. ) ;
#172 = VERTEX_POINT ( 'NONE', #336 ) ;
#173 = APPLICATION_PROTOCOL_DEFINITION ( 'draft international standard', 'automotive_design', 1998, #258 ) ;
#174 = PRESENTATION_LAYER_ASSIGNMENT (  '', '', ( #207 ) ) ;
#175 = EDGE_LOOP ( 'NONE', ( #347, #282, #216, #104 ) ) ;
#176 = ORIENTED_EDGE ( 'NONE', *, *, #66, .T. ) ;
#177 = VECTOR ( 'NONE', #222, 1000.000000000000000 ) ;
#178 =( LENGTH_UNIT ( ) NAMED_UNIT ( * ) SI_UNIT ( .MILLI., .METRE. ) );
#179 = PRODUCT ( '145031', '145031', '', ( #69 ) ) ;
#180 = CIRCLE ( 'NONE', #33, 7.999999999999998200 ) ;
#181 = SURFACE_STYLE_USAGE ( .BOTH. , #168 ) ;
#182 = UNCERTAINTY_MEASURE_WITH_UNIT (LENGTH_MEASURE( 1.000000000000000100E-005 ), #64, 'distance_accuracy_value', 'NONE');
#183 = AXIS2_PLACEMENT_3D ( 'NONE', #322, #294, #12 ) ;
#184 = CARTESIAN_POINT ( 'NONE',  ( 35.35804347957312600, 0.0000000000000000000, -8.576800627664493600E-016 ) ) ;
#185 = ORIENTED_EDGE ( 'NONE', *, *, #48, .T. ) ;
#186 = ORIENTED_EDGE ( 'NONE', *, *, #63, .F. ) ;
#187 = DIRECTION ( 'NONE',  ( 0.0000000000000000000, 0.0000000000000000000, -1.000000000000000000 ) ) ;
#188 = AXIS2_PLACEMENT_3D ( 'NONE', #250, #50, #18 ) ;
#189 = CARTESIAN_POINT ( 'NONE',  ( 21.64235051385232100, 0.0000000000000000000, 7.999999999999992900 ) ) ;
#190 = DIRECTION ( 'NONE',  ( 0.0000000000000000000, 0.0000000000000000000, 1.000000000000000000 ) ) ;
#191 = ORIENTED_EDGE ( 'NONE', *, *, #231, .T. ) ;
#192 = ORIENTED_EDGE ( 'NONE', *, *, #48, .F. ) ;
#193 = ADVANCED_FACE ( 'NONE', ( #315 ), #140, .F. ) ;
#194 = DIRECTION ( 'NONE',  ( 0.0000000000000000000, 0.0000000000000000000, 1.000000000000000000 ) ) ;
#195 = DIRECTION ( 'NONE',  ( 0.0000000000000000000, 1.000000000000000000, 0.0000000000000000000 ) ) ;
#196 = CARTESIAN_POINT ( 'NONE',  ( 6.125043479573127700, 0.0000000000000000000, -2.710505431213761100E-017 ) ) ;
#197 = DIRECTION ( 'NONE',  ( -1.000000000000000000, -0.0000000000000000000, -0.0000000000000000000 ) ) ;
#198 = CARTESIAN_POINT ( 'NONE',  ( 21.64235051385232100, 9.797174393178817800E-016, -7.999999999999992900 ) ) ;
#199 = AXIS2_PLACEMENT_3D ( 'NONE', #139, #26, #6 ) ;
#200 = CLOSED_SHELL ( 'NONE', ( #74, #341, #270, #288, #291, #54 ) ) ;
#201 = ORIENTED_EDGE ( 'NONE', *, *, #37, .T. ) ;
#202 = PRESENTATION_STYLE_ASSIGNMENT (( #219 ) ) ;
#203 = DIRECTION ( 'NONE',  ( 0.0000000000000000000, 0.0000000000000000000, 1.000000000000000000 ) ) ;
#204 =( NAMED_UNIT ( * ) SI_UNIT ( $, .STERADIAN. ) SOLID_ANGLE_UNIT ( ) );
#205 = EDGE_CURVE ( 'NONE', #152, #162, #42, .T. ) ;
#206 = CARTESIAN_POINT ( 'NONE',  ( 16.35753148647146900, 0.0000000000000000000, 7.999999999999996400 ) ) ;
#207 = STYLED_ITEM ( 'NONE', ( #202 ), #240 ) ;
#208 = PRESENTATION_STYLE_ASSIGNMENT (( #181 ) ) ;
#209 = CARTESIAN_POINT ( 'NONE',  ( 18.15483188170223600, 0.0000000000000000000, 0.0000000000000000000 ) ) ;
#210 = ADVANCED_FACE ( 'NONE', ( #35 ), #105, .T. ) ;
#211 = EDGE_LOOP ( 'NONE', ( #90, #224, #100 ) ) ;
#212 = VERTEX_POINT ( 'NONE', #189 ) ;
#213 = EDGE_CURVE ( 'NONE', #172, #41, #313, .T. ) ;
#214 = COLOUR_RGB ( '',1.000000000000000000, 1.000000000000000000, 1.000000000000000000 ) ;
#215 = ORIENTED_EDGE ( 'NONE', *, *, #142, .T. ) ;
#216 = ORIENTED_EDGE ( 'NONE', *, *, #45, .T. ) ;
#217 =( GEOMETRIC_REPRESENTATION_CONTEXT ( 3 ) GLOBAL_UNCERTAINTY_ASSIGNED_CONTEXT ( ( #81 ) ) GLOBAL_UNIT_ASSIGNED_CONTEXT ( ( #92, #138, #112 ) ) REPRESENTATION_CONTEXT ( 'NONE', 'WORKASPACE' ) );
#218 = DIRECTION ( 'NONE',  ( 0.0000000000000000000, -1.000000000000000000, 0.0000000000000000000 ) ) ;
#219 = SURFACE_STYLE_USAGE ( .BOTH. , #136 ) ;
#220 = CIRCLE ( 'NONE', #221, 14.44699999999999700 ) ;
#221 = AXIS2_PLACEMENT_3D ( 'NONE', #121, #29, #297 ) ;
#222 = DIRECTION ( 'NONE',  ( -1.000000000000000000, -0.0000000000000000000, -0.0000000000000000000 ) ) ;
#223 = ORIENTED_EDGE ( 'NONE', *, *, #22, .F. ) ;
#224 = ORIENTED_EDGE ( 'NONE', *, *, #213, .T. ) ;
#225 = ORIENTED_EDGE ( 'NONE', *, *, #285, .T. ) ;
#226 = CARTESIAN_POINT ( 'NONE',  ( 16.35753148647146900, 0.0000000000000000000, 0.0000000000000000000 ) ) ;
#227 = EDGE_CURVE ( 'NONE', #172, #91, #180, .T. ) ;
#228 = CYLINDRICAL_SURFACE ( 'NONE', #25, 7.999999999999992900 ) ;
#229 = FACE_OUTER_BOUND ( 'NONE', #109, .T. ) ;
#230 = DIRECTION ( 'NONE',  ( 0.0000000000000000000, 0.0000000000000000000, 1.000000000000000000 ) ) ;
#231 = EDGE_CURVE ( 'NONE', #91, #41, #252, .T. ) ;
#232 = VERTEX_POINT ( 'NONE', #244 ) ;
#233 = DIRECTION ( 'NONE',  ( -1.000000000000000000, -0.0000000000000000000, -0.0000000000000000000 ) ) ;
#234 = MECHANICAL_DESIGN_GEOMETRIC_PRESENTATION_REPRESENTATION (  '', ( #207 ), #346 ) ;
#235 = DIRECTION ( 'NONE',  ( 0.0000000000000000000, 0.0000000000000000000, 1.000000000000000000 ) ) ;
#236 = FACE_OUTER_BOUND ( 'NONE', #117, .T. ) ;
#237 = STYLED_ITEM ( 'NONE', ( #157 ), #302 ) ;
#238 = SPHERICAL_SURFACE ( 'NONE', #119, 39.92600000000000200 ) ;
#239 = DIRECTION ( 'NONE',  ( 0.0000000000000000000, 1.000000000000000000, 0.0000000000000000000 ) ) ;
#240 = MANIFOLD_SOLID_BREP ( 'Ðý×ª3', #256 ) ;
#241 = DIRECTION ( 'NONE',  ( 0.0000000000000000000, 0.0000000000000000000, 1.000000000000000000 ) ) ;
#242 = FILL_AREA_STYLE ('',( #1 ) ) ;
#243 = EDGE_CURVE ( 'NONE', #300, #91, #247, .T. ) ;
#244 = CARTESIAN_POINT ( 'NONE',  ( 20.57204347957312500, 0.0000000000000000000, 8.575185610519529600E-016 ) ) ;
#245 = EDGE_LOOP ( 'NONE', ( #102, #225, #56, #314 ) ) ;
#246 = CARTESIAN_POINT ( 'NONE',  ( 18.15483188170223600, 9.797174393178823700E-016, -7.999999999999998200 ) ) ;
#247 = LINE ( 'NONE', #110, #177 ) ;
#248 = SURFACE_STYLE_FILL_AREA ( #242 ) ;
#249 = CARTESIAN_POINT ( 'NONE',  ( 16.35753148647146900, 0.0000000000000000000, 0.0000000000000000000 ) ) ;
#250 = CARTESIAN_POINT ( 'NONE',  ( 6.125043479573127700, 0.0000000000000000000, -2.710505431213761100E-017 ) ) ;
#251 = CARTESIAN_POINT ( 'NONE',  ( 22.45204347957312100, 0.0000000000000000000, 2.444762405137861600E-015 ) ) ;
#252 = CIRCLE ( 'NONE', #122, 20.61600000000000000 ) ;
#253 = CARTESIAN_POINT ( 'NONE',  ( -17.47395652042688100, 0.0000000000000000000, 0.0000000000000000000 ) ) ;
#254 = MECHANICAL_DESIGN_GEOMETRIC_PRESENTATION_REPRESENTATION (  '', ( #52 ), #217 ) ;
#255 = DIRECTION ( 'NONE',  ( -1.000000000000000000, -0.0000000000000000000, -0.0000000000000000000 ) ) ;
#256 = CLOSED_SHELL ( 'NONE', ( #49, #51, #311, #193, #319, #210 ) ) ;
#257 = EDGE_LOOP ( 'NONE', ( #7, #215, #223, #8 ) ) ;
#258 = APPLICATION_CONTEXT ( 'automotive_design' ) ;
#259 = DIRECTION ( 'NONE',  ( -1.000000000000000000, -0.0000000000000000000, -0.0000000000000000000 ) ) ;
#260 = FILL_AREA_STYLE ('',( #263 ) ) ;
#261 = CARTESIAN_POINT ( 'NONE',  ( 6.125043479573127700, 0.0000000000000000000, -2.710505431213761100E-017 ) ) ;
#262 = ORIENTED_EDGE ( 'NONE', *, *, #154, .T. ) ;
#263 = FILL_AREA_STYLE_COLOUR ( '', #214 ) ;
#264 = APPLICATION_PROTOCOL_DEFINITION ( 'draft international standard', 'automotive_design', 1998, #312 ) ;
#265 = CARTESIAN_POINT ( 'NONE',  ( 20.57204347957312200, 0.0000000000000000000, 8.575185610519527600E-016 ) ) ;
#266 = DIRECTION ( 'NONE',  ( -1.000000000000000000, -0.0000000000000000000, -0.0000000000000000000 ) ) ;
#267 = CYLINDRICAL_SURFACE ( 'NONE', #20, 7.999999999999998200 ) ;
#268 =( GEOMETRIC_REPRESENTATION_CONTEXT ( 3 ) GLOBAL_UNCERTAINTY_ASSIGNED_CONTEXT ( ( #114 ) ) GLOBAL_UNIT_ASSIGNED_CONTEXT ( ( #144, #295, #204 ) ) REPRESENTATION_CONTEXT ( 'NONE', 'WORKASPACE' ) );
#269 = ORIENTED_EDGE ( 'NONE', *, *, #45, .F. ) ;
#270 = ADVANCED_FACE ( 'NONE', ( #120 ), #280, .T. ) ;
#271 =( NAMED_UNIT ( * ) SI_UNIT ( $, .STERADIAN. ) SOLID_ANGLE_UNIT ( ) );
#272 = DIRECTION ( 'NONE',  ( 0.0000000000000000000, 0.0000000000000000000, 1.000000000000000000 ) ) ;
#273 = DIRECTION ( 'NONE',  ( 0.0000000000000000000, 0.0000000000000000000, 1.000000000000000000 ) ) ;
#274 = PRODUCT_RELATED_PRODUCT_CATEGORY ( 'part', '', ( #179 ) ) ;
#275 = DIRECTION ( 'NONE',  ( -1.000000000000000000, -0.0000000000000000000, -0.0000000000000000000 ) ) ;
#276 = COLOUR_RGB ( '',1.000000000000000000, 1.000000000000000000, 1.000000000000000000 ) ;
#277 = ORIENTED_EDGE ( 'NONE', *, *, #205, .T. ) ;
#278 = LINE ( 'NONE', #17, #71 ) ;
#279 = CARTESIAN_POINT ( 'NONE',  ( 21.64235051385232100, 0.0000000000000000000, 0.0000000000000000000 ) ) ;
#280 = SPHERICAL_SURFACE ( 'NONE', #327, 20.61600000000000000 ) ;
#281 = VERTEX_POINT ( 'NONE', #246 ) ;
#282 = ORIENTED_EDGE ( 'NONE', *, *, #148, .T. ) ;
#283 = CARTESIAN_POINT ( 'NONE',  ( 18.15483188170223600, 0.0000000000000000000, 0.0000000000000000000 ) ) ;
#284 = CIRCLE ( 'NONE', #31, 39.92600000000000200 ) ;
#285 = EDGE_CURVE ( 'NONE', #281, #300, #337, .T. ) ;
#286 =( NAMED_UNIT ( * ) PLANE_ANGLE_UNIT ( ) SI_UNIT ( $, .RADIAN. ) );
#287 = AXIS2_PLACEMENT_3D ( 'NONE', #97, #239, #40 ) ;
#288 = ADVANCED_FACE ( 'NONE', ( #39 ), #325, .T. ) ;
#289 = CARTESIAN_POINT ( 'NONE',  ( -17.47395652042688100, 0.0000000000000000000, 0.0000000000000000000 ) ) ;
#290 = ORIENTED_EDGE ( 'NONE', *, *, #135, .T. ) ;
#291 = ADVANCED_FACE ( 'NONE', ( #123 ), #267, .T. ) ;
#292 =( NAMED_UNIT ( * ) PLANE_ANGLE_UNIT ( ) SI_UNIT ( $, .RADIAN. ) );
#293 = DIRECTION ( 'NONE',  ( -1.000000000000000000, -0.0000000000000000000, -0.0000000000000000000 ) ) ;
#294 = DIRECTION ( 'NONE',  ( 0.0000000000000000000, 1.000000000000000000, 0.0000000000000000000 ) ) ;
#295 =( NAMED_UNIT ( * ) PLANE_ANGLE_UNIT ( ) SI_UNIT ( $, .RADIAN. ) );
#296 = CIRCLE ( 'NONE', #145, 7.999999999999992900 ) ;
#297 = DIRECTION ( 'NONE',  ( 0.0000000000000000000, -1.224646799147353500E-016, 1.000000000000000000 ) ) ;
#298 = DIRECTION ( 'NONE',  ( 0.0000000000000000000, 0.0000000000000000000, 1.000000000000000000 ) ) ;
#299 = DIRECTION ( 'NONE',  ( -0.0000000000000000000, 1.000000000000000000, 1.224646799147353200E-016 ) ) ;
#300 = VERTEX_POINT ( 'NONE', #170 ) ;
#301 = ORIENTED_EDGE ( 'NONE', *, *, #15, .T. ) ;
#302 = ADVANCED_BREP_SHAPE_REPRESENTATION ( '145031', ( #143, #240, #326 ), #10 ) ;
#303 = CARTESIAN_POINT ( 'NONE',  ( 18.15483188170223600, 0.0000000000000000000, 0.0000000000000000000 ) ) ;
#304 = CIRCLE ( 'NONE', #96, 7.999999999999994700 ) ;
#305 = DIRECTION ( 'NONE',  ( 0.0000000000000000000, 0.0000000000000000000, 1.000000000000000000 ) ) ;
#306 = DIRECTION ( 'NONE',  ( -1.000000000000000000, -0.0000000000000000000, -0.0000000000000000000 ) ) ;
#307 = AXIS2_PLACEMENT_3D ( 'NONE', #158, #255, #317 ) ;
#308 = VERTEX_POINT ( 'NONE', #251 ) ;
#309 = ORIENTED_EDGE ( 'NONE', *, *, #135, .F. ) ;
#310 = DIRECTION ( 'NONE',  ( -1.000000000000000000, -0.0000000000000000000, -0.0000000000000000000 ) ) ;
#311 = ADVANCED_FACE ( 'NONE', ( #328 ), #342, .F. ) ;
#312 = APPLICATION_CONTEXT ( 'automotive_design' ) ;
#313 = CIRCLE ( 'NONE', #107, 20.61600000000000000 ) ;
#314 = ORIENTED_EDGE ( 'NONE', *, *, #227, .F. ) ;
#315 = FACE_OUTER_BOUND ( 'NONE', #47, .T. ) ;
#316 = DIRECTION ( 'NONE',  ( 0.0000000000000000000, -1.000000000000000000, 0.0000000000000000000 ) ) ;
#317 = DIRECTION ( 'NONE',  ( 0.0000000000000000000, 0.0000000000000000000, 1.000000000000000000 ) ) ;
#318 = ORIENTED_EDGE ( 'NONE', *, *, #59, .F. ) ;
#319 = ADVANCED_FACE ( 'NONE', ( #77 ), #228, .T. ) ;
#320 = FILL_AREA_STYLE_COLOUR ( '', #276 ) ;
#321 = CIRCLE ( 'NONE', #73, 7.999999999999998200 ) ;
#322 = CARTESIAN_POINT ( 'NONE',  ( 6.125043479573127700, 0.0000000000000000000, -2.710505431213761100E-017 ) ) ;
#323 = CARTESIAN_POINT ( 'NONE',  ( 14.74204347957313000, 0.0000000000000000000, 4.046858577946422400E-016 ) ) ;
#324 = DIRECTION ( 'NONE',  ( -1.000000000000000000, -0.0000000000000000000, -0.0000000000000000000 ) ) ;
#325 = SPHERICAL_SURFACE ( 'NONE', #335, 20.61600000000000000 ) ;
#326 = AXIS2_PLACEMENT_3D ( 'NONE', #132, #305, #101 ) ;
#327 = AXIS2_PLACEMENT_3D ( 'NONE', #345, #167, #241 ) ;
#328 = FACE_OUTER_BOUND ( 'NONE', #134, .T. ) ;
#329 = CARTESIAN_POINT ( 'NONE',  ( -17.47395652042688100, 0.0000000000000000000, 0.0000000000000000000 ) ) ;
#330 = EDGE_LOOP ( 'NONE', ( #186, #262, #171 ) ) ;
#331 = VERTEX_POINT ( 'NONE', #265 ) ;
#332 = PRODUCT_DEFINITION_CONTEXT ( 'detailed design', #258, 'design' ) ;
#333 = EDGE_CURVE ( 'NONE', #300, #281, #98, .T. ) ;
#334 = CARTESIAN_POINT ( 'NONE',  ( 6.125043479573127700, 0.0000000000000000000, -2.710505431213761100E-017 ) ) ;
#335 = AXIS2_PLACEMENT_3D ( 'NONE', #184, #36, #58 ) ;
#336 = CARTESIAN_POINT ( 'NONE',  ( 16.35753148647146900, 9.797174393178821700E-016, -7.999999999999996400 ) ) ;
#337 = CIRCLE ( 'NONE', #169, 7.999999999999998200 ) ;
#338 = DIRECTION ( 'NONE',  ( -1.000000000000000000, -0.0000000000000000000, -0.0000000000000000000 ) ) ;
#339 = ORIENTED_EDGE ( 'NONE', *, *, #333, .F. ) ;
#340 = AXIS2_PLACEMENT_3D ( 'NONE', #283, #115, #235 ) ;
#341 = ADVANCED_FACE ( 'NONE', ( #65 ), #86, .T. ) ;
#342 = SPHERICAL_SURFACE ( 'NONE', #183, 14.44699999999999600 ) ;
#343 = CIRCLE ( 'NONE', #93, 39.92600000000000200 ) ;
#344 = PRESENTATION_LAYER_ASSIGNMENT (  '', '', ( #52 ) ) ;
#345 = CARTESIAN_POINT ( 'NONE',  ( 35.35804347957312600, 0.0000000000000000000, -8.576800627664493600E-016 ) ) ;
#346 =( GEOMETRIC_REPRESENTATION_CONTEXT ( 3 ) GLOBAL_UNCERTAINTY_ASSIGNED_CONTEXT ( ( #14 ) ) GLOBAL_UNIT_ASSIGNED_CONTEXT ( ( #178, #292, #141 ) ) REPRESENTATION_CONTEXT ( 'NONE', 'WORKASPACE' ) );
#347 = ORIENTED_EDGE ( 'NONE', *, *, #205, .F. ) ;
ENDSEC;
END-ISO-10303-21;
