ISO-10303-21;
HEADER;
FILE_DESCRIPTION (( 'STEP AP214' ),
    '1' );
FILE_NAME ('145028.STEP',
    '2019-05-11T02:09:08',
    ( 'user' ),
    ( 'Î¢ÈíÖÐ¹ú' ),
    'SwSTEP 2.0',
    'SolidWorks 2016',
    '' );
FILE_SCHEMA (( 'AUTOMOTIVE_DESIGN' ));
ENDSEC;

DATA;
#1 = CARTESIAN_POINT ( 'NONE',  ( 57.22981517711856000, 0.0000000000000000000, -1.201227822710680100E-016 ) ) ;
#2 = CIRCLE ( 'NONE', #126, 6.349999999999999600 ) ;
#3 = DIRECTION ( 'NONE',  ( 0.0000000000000000000, 1.000000000000000000, 0.0000000000000000000 ) ) ;
#4 =( LENGTH_UNIT ( ) NAMED_UNIT ( * ) SI_UNIT ( .MILLI., .METRE. ) );
#5 = AXIS2_PLACEMENT_3D ( 'NONE', #14, #201, #42 ) ;
#6 = ORIENTED_EDGE ( 'NONE', *, *, #263, .T. ) ;
#7 = DIRECTION ( 'NONE',  ( -1.000000000000000000, -0.0000000000000000000, -0.0000000000000000000 ) ) ;
#8 = CARTESIAN_POINT ( 'NONE',  ( 19.77664144062063700, 0.0000000000000000000, 0.0000000000000000000 ) ) ;
#9 = ORIENTED_EDGE ( 'NONE', *, *, #224, .T. ) ;
#10 = CARTESIAN_POINT ( 'NONE',  ( 19.77664144062063700, 0.0000000000000000000, 6.349999999999979200 ) ) ;
#11 = DIRECTION ( 'NONE',  ( 0.0000000000000000000, 0.0000000000000000000, 1.000000000000000000 ) ) ;
#12 = CARTESIAN_POINT ( 'NONE',  ( 19.77664144062063700, 7.776507174585670500E-016, -6.349999999999979200 ) ) ;
#13 = LINE ( 'NONE', #47, #318 ) ;
#14 = CARTESIAN_POINT ( 'NONE',  ( -0.5519199926577972300, 0.0000000000000000000, 0.0000000000000000000 ) ) ;
#15 = ORIENTED_EDGE ( 'NONE', *, *, #62, .T. ) ;
#16 = VECTOR ( 'NONE', #57, 1000.000000000000000 ) ;
#17 = EDGE_LOOP ( 'NONE', ( #93, #84, #324 ) ) ;
#18 = AXIS2_PLACEMENT_3D ( 'NONE', #151, #82, #130 ) ;
#19 = CARTESIAN_POINT ( 'NONE',  ( -111.7701848228814200, 0.0000000000000000000, 0.0000000000000000000 ) ) ;
#20 = ADVANCED_FACE ( 'NONE', ( #182 ), #114, .T. ) ;
#21 = ORIENTED_EDGE ( 'NONE', *, *, #248, .T. ) ;
#22 = LINE ( 'NONE', #37, #16 ) ;
#23 = AXIS2_PLACEMENT_3D ( 'NONE', #144, #340, #98 ) ;
#24 = ORIENTED_EDGE ( 'NONE', *, *, #312, .F. ) ;
#25 = PRESENTATION_STYLE_ASSIGNMENT (( #104 ) ) ;
#26 = DIRECTION ( 'NONE',  ( 0.0000000000000000000, 1.000000000000000000, 0.0000000000000000000 ) ) ;
#27 = CARTESIAN_POINT ( 'NONE',  ( 18.42981517711856300, 0.0000000000000000000, 1.810488961930606300E-015 ) ) ;
#28 = UNCERTAINTY_MEASURE_WITH_UNIT (LENGTH_MEASURE( 1.000000000000000100E-005 ), #158, 'distance_accuracy_value', 'NONE');
#29 = CARTESIAN_POINT ( 'NONE',  ( 15.92981517711856300, 0.0000000000000000000, 2.408772857968215900E-015 ) ) ;
#30 = EDGE_CURVE ( 'NONE', #191, #194, #290, .T. ) ;
#31 = CIRCLE ( 'NONE', #317, 41.29999999999999700 ) ;
#32 = VERTEX_POINT ( 'NONE', #143 ) ;
#33 = DIRECTION ( 'NONE',  ( 0.0000000000000000000, -1.000000000000000000, 0.0000000000000000000 ) ) ;
#34 =( NAMED_UNIT ( * ) SI_UNIT ( $, .STERADIAN. ) SOLID_ANGLE_UNIT ( ) );
#35 = PRODUCT ( '145028', '145028', '', ( #280 ) ) ;
#36 = CARTESIAN_POINT ( 'NONE',  ( 17.83157411283929500, 0.0000000000000000000, 0.0000000000000000000 ) ) ;
#37 = CARTESIAN_POINT ( 'NONE',  ( -9.702612178336682500, 0.0000000000000000000, 6.349999999999999600 ) ) ;
#38 = DIRECTION ( 'NONE',  ( -1.000000000000000000, -0.0000000000000000000, -0.0000000000000000000 ) ) ;
#39 = AXIS2_PLACEMENT_3D ( 'NONE', #97, #3, #264 ) ;
#40 = DIRECTION ( 'NONE',  ( -1.000000000000000000, -0.0000000000000000000, -0.0000000000000000000 ) ) ;
#41 = MECHANICAL_DESIGN_GEOMETRIC_PRESENTATION_REPRESENTATION (  '', ( #183 ), #141 ) ;
#42 = DIRECTION ( 'NONE',  ( 0.0000000000000000000, 0.0000000000000000000, 1.000000000000000000 ) ) ;
#43 = AXIS2_PLACEMENT_3D ( 'NONE', #334, #139, #168 ) ;
#44 = CARTESIAN_POINT ( 'NONE',  ( 17.83157411283929900, 0.0000000000000000000, 0.0000000000000000000 ) ) ;
#45 = DIRECTION ( 'NONE',  ( 0.0000000000000000000, -1.000000000000000000, 0.0000000000000000000 ) ) ;
#46 = ORIENTED_EDGE ( 'NONE', *, *, #153, .T. ) ;
#47 = CARTESIAN_POINT ( 'NONE',  ( -9.702612178336682500, 7.776507174585692200E-016, -6.349999999999999600 ) ) ;
#48 = CYLINDRICAL_SURFACE ( 'NONE', #5, 6.349999999999985400 ) ;
#49 = ORIENTED_EDGE ( 'NONE', *, *, #69, .F. ) ;
#50 = CARTESIAN_POINT ( 'NONE',  ( 16.42090070981130300, 0.0000000000000000000, 0.0000000000000000000 ) ) ;
#51 = DIRECTION ( 'NONE',  ( -0.0000000000000000000, 1.000000000000000000, 1.224646799147353200E-016 ) ) ;
#52 = ORIENTED_EDGE ( 'NONE', *, *, #265, .F. ) ;
#53 = DIRECTION ( 'NONE',  ( -0.0000000000000000000, 1.000000000000000000, 1.224646799147353200E-016 ) ) ;
#54 = CARTESIAN_POINT ( 'NONE',  ( 0.0000000000000000000, 0.0000000000000000000, 0.0000000000000000000 ) ) ;
#55 = AXIS2_PLACEMENT_3D ( 'NONE', #8, #136, #223 ) ;
#56 = SPHERICAL_SURFACE ( 'NONE', #282, 34.00000000000000000 ) ;
#57 = DIRECTION ( 'NONE',  ( -1.000000000000000000, -0.0000000000000000000, -0.0000000000000000000 ) ) ;
#58 = EDGE_LOOP ( 'NONE', ( #289, #138, #128 ) ) ;
#59 = DIRECTION ( 'NONE',  ( -1.000000000000000000, -0.0000000000000000000, -0.0000000000000000000 ) ) ;
#60 = DIRECTION ( 'NONE',  ( 0.0000000000000000000, 0.0000000000000000000, 1.000000000000000000 ) ) ;
#61 = VERTEX_POINT ( 'NONE', #64 ) ;
#62 = EDGE_CURVE ( 'NONE', #191, #147, #175, .T. ) ;
#63 = SPHERICAL_SURFACE ( 'NONE', #220, 34.00000000000000000 ) ;
#64 = CARTESIAN_POINT ( 'NONE',  ( 16.42090070981129900, 0.0000000000000000000, 6.350000000000005000 ) ) ;
#65 = FACE_OUTER_BOUND ( 'NONE', #157, .T. ) ;
#66 = DIRECTION ( 'NONE',  ( 0.0000000000000000000, 0.0000000000000000000, 1.000000000000000000 ) ) ;
#67 = CARTESIAN_POINT ( 'NONE',  ( -111.7701848228814200, 0.0000000000000000000, 0.0000000000000000000 ) ) ;
#68 = MANIFOLD_SOLID_BREP ( 'Ðý×ª1', #123 ) ;
#69 = EDGE_CURVE ( 'NONE', #194, #231, #230, .T. ) ;
#70 = VERTEX_POINT ( 'NONE', #291 ) ;
#71 = COLOUR_RGB ( '',1.000000000000000000, 1.000000000000000000, 1.000000000000000000 ) ;
#72 = ADVANCED_FACE ( 'NONE', ( #101 ), #209, .T. ) ;
#73 = CIRCLE ( 'NONE', #228, 6.349999999999999600 ) ;
#74 = AXIS2_PLACEMENT_3D ( 'NONE', #135, #279, #60 ) ;
#75 = EDGE_LOOP ( 'NONE', ( #166, #271, #149, #52 ) ) ;
#76 = AXIS2_PLACEMENT_3D ( 'NONE', #67, #288, #116 ) ;
#77 = CIRCLE ( 'NONE', #331, 6.349999999999990800 ) ;
#78 = VERTEX_POINT ( 'NONE', #261 ) ;
#79 = LINE ( 'NONE', #113, #150 ) ;
#80 = DIRECTION ( 'NONE',  ( 0.0000000000000000000, 0.0000000000000000000, 1.000000000000000000 ) ) ;
#81 = SHAPE_DEFINITION_REPRESENTATION ( #293, #284 ) ;
#82 = DIRECTION ( 'NONE',  ( 0.0000000000000000000, 1.000000000000000000, 0.0000000000000000000 ) ) ;
#83 = FILL_AREA_STYLE ('',( #179 ) ) ;
#84 = ORIENTED_EDGE ( 'NONE', *, *, #229, .T. ) ;
#85 = FILL_AREA_STYLE ('',( #118 ) ) ;
#86 = DIRECTION ( 'NONE',  ( 1.000000000000000000, 0.0000000000000000000, 0.0000000000000000000 ) ) ;
#87 = ORIENTED_EDGE ( 'NONE', *, *, #224, .F. ) ;
#88 = CARTESIAN_POINT ( 'NONE',  ( -15.57018482288144100, 0.0000000000000000000, -2.714105966198940700E-016 ) ) ;
#89 = EDGE_CURVE ( 'NONE', #195, #61, #22, .T. ) ;
#90 = CARTESIAN_POINT ( 'NONE',  ( -15.57018482288144100, 0.0000000000000000000, -2.714105966198940700E-016 ) ) ;
#91 = CARTESIAN_POINT ( 'NONE',  ( 19.77664144062063700, 0.0000000000000000000, 0.0000000000000000000 ) ) ;
#92 = ORIENTED_EDGE ( 'NONE', *, *, #62, .F. ) ;
#93 = ORIENTED_EDGE ( 'NONE', *, *, #160, .F. ) ;
#94 = PRESENTATION_LAYER_ASSIGNMENT (  '', '', ( #262 ) ) ;
#95 = CARTESIAN_POINT ( 'NONE',  ( -15.57018482288144100, 0.0000000000000000000, -2.714105966198940700E-016 ) ) ;
#96 = AXIS2_PLACEMENT_3D ( 'NONE', #19, #33, #108 ) ;
#97 = CARTESIAN_POINT ( 'NONE',  ( -111.7701848228814200, 0.0000000000000000000, 0.0000000000000000000 ) ) ;
#98 = DIRECTION ( 'NONE',  ( 0.0000000000000000000, 0.0000000000000000000, -1.000000000000000000 ) ) ;
#99 = ADVANCED_FACE ( 'NONE', ( #148 ), #105, .T. ) ;
#100 = EDGE_LOOP ( 'NONE', ( #92, #200, #217 ) ) ;
#101 = FACE_OUTER_BOUND ( 'NONE', #208, .T. ) ;
#102 = ORIENTED_EDGE ( 'NONE', *, *, #207, .T. ) ;
#103 = DIRECTION ( 'NONE',  ( -1.000000000000000000, -0.0000000000000000000, -0.0000000000000000000 ) ) ;
#104 = SURFACE_STYLE_USAGE ( .BOTH. , #276 ) ;
#105 = CYLINDRICAL_SURFACE ( 'NONE', #110, 6.349999999999999600 ) ;
#106 = EDGE_LOOP ( 'NONE', ( #336, #21, #247 ) ) ;
#107 = DIRECTION ( 'NONE',  ( -1.000000000000000000, -0.0000000000000000000, -0.0000000000000000000 ) ) ;
#108 = DIRECTION ( 'NONE',  ( 0.0000000000000000000, 0.0000000000000000000, -1.000000000000000000 ) ) ;
#109 = APPLICATION_CONTEXT ( 'automotive_design' ) ;
#110 = AXIS2_PLACEMENT_3D ( 'NONE', #332, #7, #341 ) ;
#111 = CLOSED_SHELL ( 'NONE', ( #20, #173, #145, #267, #294, #236 ) ) ;
#112 = SURFACE_STYLE_USAGE ( .BOTH. , #316 ) ;
#113 = CARTESIAN_POINT ( 'NONE',  ( -0.5519199926577972300, 0.0000000000000000000, 6.349999999999985400 ) ) ;
#114 = SPHERICAL_SURFACE ( 'NONE', #39, 131.6999999999999900 ) ;
#115 = EDGE_LOOP ( 'NONE', ( #49, #9, #102, #296 ) ) ;
#116 = DIRECTION ( 'NONE',  ( 0.0000000000000000000, -1.224646799147353200E-016, 1.000000000000000000 ) ) ;
#117 = CIRCLE ( 'NONE', #246, 6.349999999999999600 ) ;
#118 = FILL_AREA_STYLE_COLOUR ( '', #305 ) ;
#119 = VERTEX_POINT ( 'NONE', #306 ) ;
#120 = CARTESIAN_POINT ( 'NONE',  ( 57.22981517711856000, 0.0000000000000000000, -1.201227822710680100E-016 ) ) ;
#121 = CIRCLE ( 'NONE', #55, 6.349999999999979200 ) ;
#122 = ADVANCED_FACE ( 'NONE', ( #65 ), #216, .T. ) ;
#123 = CLOSED_SHELL ( 'NONE', ( #204, #122, #72, #343, #99, #319 ) ) ;
#124 = CIRCLE ( 'NONE', #270, 34.00000000000000000 ) ;
#125 = PRODUCT_RELATED_PRODUCT_CATEGORY ( 'part', '', ( #35 ) ) ;
#126 = AXIS2_PLACEMENT_3D ( 'NONE', #277, #107, #301 ) ;
#127 = EDGE_CURVE ( 'NONE', #231, #78, #77, .T. ) ;
#128 = ORIENTED_EDGE ( 'NONE', *, *, #221, .F. ) ;
#129 = DIRECTION ( 'NONE',  ( 0.0000000000000000000, 0.0000000000000000000, 1.000000000000000000 ) ) ;
#130 = DIRECTION ( 'NONE',  ( 0.0000000000000000000, 0.0000000000000000000, 1.000000000000000000 ) ) ;
#131 =( NAMED_UNIT ( * ) PLANE_ANGLE_UNIT ( ) SI_UNIT ( $, .RADIAN. ) );
#132 = FILL_AREA_STYLE ('',( #212 ) ) ;
#133 = DIRECTION ( 'NONE',  ( 0.0000000000000000000, -1.224646799147353200E-016, 1.000000000000000000 ) ) ;
#134 =( NAMED_UNIT ( * ) SI_UNIT ( $, .STERADIAN. ) SOLID_ANGLE_UNIT ( ) );
#135 = CARTESIAN_POINT ( 'NONE',  ( -9.702612178336682500, 0.0000000000000000000, 0.0000000000000000000 ) ) ;
#136 = DIRECTION ( 'NONE',  ( -1.000000000000000000, -0.0000000000000000000, -0.0000000000000000000 ) ) ;
#137 = CARTESIAN_POINT ( 'NONE',  ( 17.83157411283929900, 0.0000000000000000000, 0.0000000000000000000 ) ) ;
#138 = ORIENTED_EDGE ( 'NONE', *, *, #160, .T. ) ;
#139 = DIRECTION ( 'NONE',  ( 0.0000000000000000000, 1.000000000000000000, 0.0000000000000000000 ) ) ;
#140 = SPHERICAL_SURFACE ( 'NONE', #18, 34.00000000000000000 ) ;
#141 =( GEOMETRIC_REPRESENTATION_CONTEXT ( 3 ) GLOBAL_UNCERTAINTY_ASSIGNED_CONTEXT ( ( #154 ) ) GLOBAL_UNIT_ASSIGNED_CONTEXT ( ( #4, #188, #34 ) ) REPRESENTATION_CONTEXT ( 'NONE', 'WORKASPACE' ) );
#142 = AXIS2_PLACEMENT_3D ( 'NONE', #44, #232, #11 ) ;
#143 = CARTESIAN_POINT ( 'NONE',  ( 17.83157411283929500, 7.776507174585692200E-016, -6.349999999999999600 ) ) ;
#144 = CARTESIAN_POINT ( 'NONE',  ( -15.57018482288144100, 0.0000000000000000000, -2.714105966198940700E-016 ) ) ;
#145 = ADVANCED_FACE ( 'NONE', ( #281 ), #258, .F. ) ;
#146 =( GEOMETRIC_REPRESENTATION_CONTEXT ( 3 ) GLOBAL_UNCERTAINTY_ASSIGNED_CONTEXT ( ( #170 ) ) GLOBAL_UNIT_ASSIGNED_CONTEXT ( ( #152, #346, #178 ) ) REPRESENTATION_CONTEXT ( 'NONE', 'WORKASPACE' ) );
#147 = VERTEX_POINT ( 'NONE', #10 ) ;
#148 = FACE_OUTER_BOUND ( 'NONE', #75, .T. ) ;
#149 = ORIENTED_EDGE ( 'NONE', *, *, #89, .T. ) ;
#150 = VECTOR ( 'NONE', #227, 1000.000000000000000 ) ;
#151 = CARTESIAN_POINT ( 'NONE',  ( -15.57018482288144100, 0.0000000000000000000, -2.714105966198940700E-016 ) ) ;
#152 =( LENGTH_UNIT ( ) NAMED_UNIT ( * ) SI_UNIT ( .MILLI., .METRE. ) );
#153 = EDGE_CURVE ( 'NONE', #61, #344, #31, .T. ) ;
#154 = UNCERTAINTY_MEASURE_WITH_UNIT (LENGTH_MEASURE( 1.000000000000000100E-005 ), #4, 'distance_accuracy_value', 'NONE');
#155 = ORIENTED_EDGE ( 'NONE', *, *, #186, .T. ) ;
#156 = SURFACE_STYLE_USAGE ( .BOTH. , #327 ) ;
#157 = EDGE_LOOP ( 'NONE', ( #177, #6, #24, #274 ) ) ;
#158 =( LENGTH_UNIT ( ) NAMED_UNIT ( * ) SI_UNIT ( .MILLI., .METRE. ) );
#159 = AXIS2_PLACEMENT_3D ( 'NONE', #88, #53, #249 ) ;
#160 = EDGE_CURVE ( 'NONE', #303, #195, #165, .T. ) ;
#161 = CARTESIAN_POINT ( 'NONE',  ( 17.83157411283929500, 0.0000000000000000000, 6.349999999999999600 ) ) ;
#162 = COLOUR_RGB ( '',1.000000000000000000, 1.000000000000000000, 1.000000000000000000 ) ;
#163 =( GEOMETRIC_REPRESENTATION_CONTEXT ( 3 ) GLOBAL_UNCERTAINTY_ASSIGNED_CONTEXT ( ( #28 ) ) GLOBAL_UNIT_ASSIGNED_CONTEXT ( ( #158, #226, #134 ) ) REPRESENTATION_CONTEXT ( 'NONE', 'WORKASPACE' ) );
#164 = EDGE_CURVE ( 'NONE', #78, #231, #174, .T. ) ;
#165 = CIRCLE ( 'NONE', #23, 34.00000000000000000 ) ;
#166 = ORIENTED_EDGE ( 'NONE', *, *, #263, .F. ) ;
#167 = CYLINDRICAL_SURFACE ( 'NONE', #199, 6.349999999999985400 ) ;
#168 = DIRECTION ( 'NONE',  ( 0.0000000000000000000, 0.0000000000000000000, 1.000000000000000000 ) ) ;
#169 = DIRECTION ( 'NONE',  ( -1.000000000000000000, -0.0000000000000000000, -0.0000000000000000000 ) ) ;
#170 = UNCERTAINTY_MEASURE_WITH_UNIT (LENGTH_MEASURE( 1.000000000000000100E-005 ), #152, 'distance_accuracy_value', 'NONE');
#171 = FACE_OUTER_BOUND ( 'NONE', #115, .T. ) ;
#172 = PRESENTATION_STYLE_ASSIGNMENT (( #156 ) ) ;
#173 = ADVANCED_FACE ( 'NONE', ( #238 ), #48, .T. ) ;
#174 = CIRCLE ( 'NONE', #142, 6.349999999999990800 ) ;
#175 = CIRCLE ( 'NONE', #96, 131.6999999999999900 ) ;
#176 = AXIS2_PLACEMENT_3D ( 'NONE', #273, #103, #299 ) ;
#177 = ORIENTED_EDGE ( 'NONE', *, *, #256, .T. ) ;
#178 =( NAMED_UNIT ( * ) SI_UNIT ( $, .STERADIAN. ) SOLID_ANGLE_UNIT ( ) );
#179 = FILL_AREA_STYLE_COLOUR ( '', #162 ) ;
#180 = ORIENTED_EDGE ( 'NONE', *, *, #153, .F. ) ;
#181 = CIRCLE ( 'NONE', #240, 34.00000000000000000 ) ;
#182 = FACE_OUTER_BOUND ( 'NONE', #100, .T. ) ;
#183 = STYLED_ITEM ( 'NONE', ( #172 ), #284 ) ;
#184 = DIRECTION ( 'NONE',  ( 0.0000000000000000000, 0.0000000000000000000, 1.000000000000000000 ) ) ;
#185 = PRESENTATION_LAYER_ASSIGNMENT (  '', '', ( #206 ) ) ;
#186 = EDGE_CURVE ( 'NONE', #119, #231, #181, .T. ) ;
#187 = ORIENTED_EDGE ( 'NONE', *, *, #265, .T. ) ;
#188 =( NAMED_UNIT ( * ) PLANE_ANGLE_UNIT ( ) SI_UNIT ( $, .RADIAN. ) );
#189 = CIRCLE ( 'NONE', #320, 6.349999999999979200 ) ;
#190 = CARTESIAN_POINT ( 'NONE',  ( -15.57018482288144100, 0.0000000000000000000, -2.714105966198940700E-016 ) ) ;
#191 = VERTEX_POINT ( 'NONE', #309 ) ;
#192 = CARTESIAN_POINT ( 'NONE',  ( 17.83157411283929900, 7.776507174585673400E-016, -6.349999999999984500 ) ) ;
#193 = DIRECTION ( 'NONE',  ( 0.0000000000000000000, 0.0000000000000000000, -1.000000000000000000 ) ) ;
#194 = VERTEX_POINT ( 'NONE', #12 ) ;
#195 = VERTEX_POINT ( 'NONE', #161 ) ;
#196 = ORIENTED_EDGE ( 'NONE', *, *, #323, .T. ) ;
#197 = FACE_OUTER_BOUND ( 'NONE', #313, .T. ) ;
#198 = PRESENTATION_LAYER_ASSIGNMENT (  '', '', ( #183 ) ) ;
#199 = AXIS2_PLACEMENT_3D ( 'NONE', #321, #210, #129 ) ;
#200 = ORIENTED_EDGE ( 'NONE', *, *, #30, .T. ) ;
#201 = DIRECTION ( 'NONE',  ( -1.000000000000000000, -0.0000000000000000000, -0.0000000000000000000 ) ) ;
#202 = CARTESIAN_POINT ( 'NONE',  ( -0.5519199926577972300, 7.776507174585674400E-016, -6.349999999999985400 ) ) ;
#203 = ORIENTED_EDGE ( 'NONE', *, *, #30, .F. ) ;
#204 = ADVANCED_FACE ( 'NONE', ( #304 ), #56, .T. ) ;
#205 = PRODUCT_DEFINITION ( 'Î´Öª', '', #260, #335 ) ;
#206 = STYLED_ITEM ( 'NONE', ( #326 ), #68 ) ;
#207 = EDGE_CURVE ( 'NONE', #147, #78, #79, .T. ) ;
#208 = EDGE_LOOP ( 'NONE', ( #251, #196, #180 ) ) ;
#209 = SPHERICAL_SURFACE ( 'NONE', #338, 41.29999999999999700 ) ;
#210 = DIRECTION ( 'NONE',  ( -1.000000000000000000, -0.0000000000000000000, -0.0000000000000000000 ) ) ;
#211 = CARTESIAN_POINT ( 'NONE',  ( 57.22981517711856000, 0.0000000000000000000, -1.201227822710680100E-016 ) ) ;
#212 = FILL_AREA_STYLE_COLOUR ( '', #71 ) ;
#213 = FACE_OUTER_BOUND ( 'NONE', #315, .T. ) ;
#214 = DIRECTION ( 'NONE',  ( 0.0000000000000000000, 1.000000000000000000, 0.0000000000000000000 ) ) ;
#215 = ORIENTED_EDGE ( 'NONE', *, *, #69, .T. ) ;
#216 = CYLINDRICAL_SURFACE ( 'NONE', #74, 6.349999999999999600 ) ;
#217 = ORIENTED_EDGE ( 'NONE', *, *, #235, .F. ) ;
#218 = DIRECTION ( 'NONE',  ( 0.0000000000000000000, 0.0000000000000000000, 1.000000000000000000 ) ) ;
#219 = MECHANICAL_DESIGN_GEOMETRIC_PRESENTATION_REPRESENTATION (  '', ( #262 ), #286 ) ;
#220 = AXIS2_PLACEMENT_3D ( 'NONE', #95, #26, #272 ) ;
#221 = EDGE_CURVE ( 'NONE', #32, #195, #2, .T. ) ;
#222 = DIRECTION ( 'NONE',  ( 0.0000000000000000000, 1.000000000000000000, 0.0000000000000000000 ) ) ;
#223 = DIRECTION ( 'NONE',  ( 0.0000000000000000000, 0.0000000000000000000, 1.000000000000000000 ) ) ;
#224 = EDGE_CURVE ( 'NONE', #194, #147, #121, .T. ) ;
#225 = SPHERICAL_SURFACE ( 'NONE', #330, 41.29999999999999700 ) ;
#226 =( NAMED_UNIT ( * ) PLANE_ANGLE_UNIT ( ) SI_UNIT ( $, .RADIAN. ) );
#227 = DIRECTION ( 'NONE',  ( -1.000000000000000000, -0.0000000000000000000, -0.0000000000000000000 ) ) ;
#228 = AXIS2_PLACEMENT_3D ( 'NONE', #50, #241, #80 ) ;
#229 = EDGE_CURVE ( 'NONE', #303, #32, #266, .T. ) ;
#230 = LINE ( 'NONE', #202, #314 ) ;
#231 = VERTEX_POINT ( 'NONE', #192 ) ;
#232 = DIRECTION ( 'NONE',  ( -1.000000000000000000, -0.0000000000000000000, -0.0000000000000000000 ) ) ;
#233 = DIRECTION ( 'NONE',  ( -1.000000000000000000, -0.0000000000000000000, -0.0000000000000000000 ) ) ;
#234 = DIRECTION ( 'NONE',  ( 0.0000000000000000000, -1.000000000000000000, 0.0000000000000000000 ) ) ;
#235 = EDGE_CURVE ( 'NONE', #147, #194, #189, .T. ) ;
#236 = ADVANCED_FACE ( 'NONE', ( #213 ), #295, .T. ) ;
#237 = ORIENTED_EDGE ( 'NONE', *, *, #207, .F. ) ;
#238 = FACE_OUTER_BOUND ( 'NONE', #254, .T. ) ;
#239 = ORIENTED_EDGE ( 'NONE', *, *, #235, .T. ) ;
#240 = AXIS2_PLACEMENT_3D ( 'NONE', #90, #329, #133 ) ;
#241 = DIRECTION ( 'NONE',  ( -1.000000000000000000, -0.0000000000000000000, -0.0000000000000000000 ) ) ;
#242 = DIRECTION ( 'NONE',  ( 0.0000000000000000000, 1.000000000000000000, 0.0000000000000000000 ) ) ;
#243 = CIRCLE ( 'NONE', #297, 41.29999999999999700 ) ;
#244 = DIRECTION ( 'NONE',  ( 0.0000000000000000000, -1.224646799147353200E-016, 1.000000000000000000 ) ) ;
#245 = AXIS2_PLACEMENT_3D ( 'NONE', #54, #250, #86 ) ;
#246 = AXIS2_PLACEMENT_3D ( 'NONE', #36, #40, #285 ) ;
#247 = ORIENTED_EDGE ( 'NONE', *, *, #164, .T. ) ;
#248 = EDGE_CURVE ( 'NONE', #119, #78, #124, .T. ) ;
#249 = DIRECTION ( 'NONE',  ( 0.0000000000000000000, -1.224646799147353200E-016, 1.000000000000000000 ) ) ;
#250 = DIRECTION ( 'NONE',  ( 0.0000000000000000000, 0.0000000000000000000, 1.000000000000000000 ) ) ;
#251 = ORIENTED_EDGE ( 'NONE', *, *, #312, .T. ) ;
#252 = SURFACE_STYLE_FILL_AREA ( #83 ) ;
#253 = DIRECTION ( 'NONE',  ( 0.0000000000000000000, 0.0000000000000000000, 1.000000000000000000 ) ) ;
#254 = EDGE_LOOP ( 'NONE', ( #239, #215, #269, #237 ) ) ;
#255 = DIRECTION ( 'NONE',  ( 0.0000000000000000000, 0.0000000000000000000, 1.000000000000000000 ) ) ;
#256 = EDGE_CURVE ( 'NONE', #195, #32, #117, .T. ) ;
#257 = CARTESIAN_POINT ( 'NONE',  ( -111.7701848228814200, 0.0000000000000000000, 0.0000000000000000000 ) ) ;
#258 = SPHERICAL_SURFACE ( 'NONE', #43, 34.00000000000000000 ) ;
#259 = EDGE_LOOP ( 'NONE', ( #333, #155, #342 ) ) ;
#260 = PRODUCT_DEFINITION_FORMATION_WITH_SPECIFIED_SOURCE ( 'ÈÎºÎ', '', #35, .NOT_KNOWN. ) ;
#261 = CARTESIAN_POINT ( 'NONE',  ( 17.83157411283929900, 0.0000000000000000000, 6.349999999999984500 ) ) ;
#262 = STYLED_ITEM ( 'NONE', ( #25 ), #328 ) ;
#263 = EDGE_CURVE ( 'NONE', #32, #70, #13, .T. ) ;
#264 = DIRECTION ( 'NONE',  ( 0.0000000000000000000, 0.0000000000000000000, 1.000000000000000000 ) ) ;
#265 = EDGE_CURVE ( 'NONE', #70, #61, #73, .T. ) ;
#266 = CIRCLE ( 'NONE', #159, 34.00000000000000000 ) ;
#267 = ADVANCED_FACE ( 'NONE', ( #308 ), #63, .F. ) ;
#268 = SURFACE_STYLE_FILL_AREA ( #132 ) ;
#269 = ORIENTED_EDGE ( 'NONE', *, *, #164, .F. ) ;
#270 = AXIS2_PLACEMENT_3D ( 'NONE', #190, #234, #193 ) ;
#271 = ORIENTED_EDGE ( 'NONE', *, *, #221, .T. ) ;
#272 = DIRECTION ( 'NONE',  ( 0.0000000000000000000, 0.0000000000000000000, 1.000000000000000000 ) ) ;
#273 = CARTESIAN_POINT ( 'NONE',  ( 16.42090070981130300, 0.0000000000000000000, 0.0000000000000000000 ) ) ;
#274 = ORIENTED_EDGE ( 'NONE', *, *, #89, .F. ) ;
#275 = SURFACE_STYLE_FILL_AREA ( #85 ) ;
#276 = SURFACE_SIDE_STYLE ('',( #252 ) ) ;
#277 = CARTESIAN_POINT ( 'NONE',  ( 17.83157411283929500, 0.0000000000000000000, 0.0000000000000000000 ) ) ;
#278 = APPLICATION_PROTOCOL_DEFINITION ( 'draft international standard', 'automotive_design', 1998, #302 ) ;
#279 = DIRECTION ( 'NONE',  ( -1.000000000000000000, -0.0000000000000000000, -0.0000000000000000000 ) ) ;
#280 = PRODUCT_CONTEXT ( 'NONE', #302, 'mechanical' ) ;
#281 = FACE_OUTER_BOUND ( 'NONE', #259, .T. ) ;
#282 = AXIS2_PLACEMENT_3D ( 'NONE', #283, #222, #253 ) ;
#283 = CARTESIAN_POINT ( 'NONE',  ( -15.57018482288144100, 0.0000000000000000000, -2.714105966198940700E-016 ) ) ;
#284 = ADVANCED_BREP_SHAPE_REPRESENTATION ( '145028', ( #68, #328, #245 ), #146 ) ;
#285 = DIRECTION ( 'NONE',  ( 0.0000000000000000000, 0.0000000000000000000, 1.000000000000000000 ) ) ;
#286 =( GEOMETRIC_REPRESENTATION_CONTEXT ( 3 ) GLOBAL_UNCERTAINTY_ASSIGNED_CONTEXT ( ( #339 ) ) GLOBAL_UNIT_ASSIGNED_CONTEXT ( ( #300, #131, #325 ) ) REPRESENTATION_CONTEXT ( 'NONE', 'WORKASPACE' ) );
#287 = AXIS2_PLACEMENT_3D ( 'NONE', #257, #311, #255 ) ;
#288 = DIRECTION ( 'NONE',  ( -0.0000000000000000000, 1.000000000000000000, 1.224646799147353200E-016 ) ) ;
#289 = ORIENTED_EDGE ( 'NONE', *, *, #229, .F. ) ;
#290 = CIRCLE ( 'NONE', #76, 131.6999999999999900 ) ;
#291 = CARTESIAN_POINT ( 'NONE',  ( 16.42090070981129900, 7.776507174585698100E-016, -6.350000000000005000 ) ) ;
#292 = DIRECTION ( 'NONE',  ( 0.0000000000000000000, 0.0000000000000000000, -1.000000000000000000 ) ) ;
#293 = PRODUCT_DEFINITION_SHAPE ( 'NONE', 'NONE',  #205 ) ;
#294 = ADVANCED_FACE ( 'NONE', ( #171 ), #167, .T. ) ;
#295 = SPHERICAL_SURFACE ( 'NONE', #287, 131.6999999999999900 ) ;
#296 = ORIENTED_EDGE ( 'NONE', *, *, #127, .F. ) ;
#297 = AXIS2_PLACEMENT_3D ( 'NONE', #211, #51, #244 ) ;
#298 = CIRCLE ( 'NONE', #176, 6.349999999999999600 ) ;
#299 = DIRECTION ( 'NONE',  ( 0.0000000000000000000, 0.0000000000000000000, 1.000000000000000000 ) ) ;
#300 =( LENGTH_UNIT ( ) NAMED_UNIT ( * ) SI_UNIT ( .MILLI., .METRE. ) );
#301 = DIRECTION ( 'NONE',  ( 0.0000000000000000000, 0.0000000000000000000, 1.000000000000000000 ) ) ;
#302 = APPLICATION_CONTEXT ( 'automotive_design' ) ;
#303 = VERTEX_POINT ( 'NONE', #27 ) ;
#304 = FACE_OUTER_BOUND ( 'NONE', #17, .T. ) ;
#305 = COLOUR_RGB ( '',1.000000000000000000, 1.000000000000000000, 1.000000000000000000 ) ;
#306 = CARTESIAN_POINT ( 'NONE',  ( 18.42981517711856300, 0.0000000000000000000, 1.810488961930606300E-015 ) ) ;
#307 = APPLICATION_PROTOCOL_DEFINITION ( 'draft international standard', 'automotive_design', 1998, #109 ) ;
#308 = FACE_OUTER_BOUND ( 'NONE', #106, .T. ) ;
#309 = CARTESIAN_POINT ( 'NONE',  ( 19.92981517711855900, 0.0000000000000000000, 8.064299172385319600E-015 ) ) ;
#310 = DIRECTION ( 'NONE',  ( 0.0000000000000000000, 0.0000000000000000000, 1.000000000000000000 ) ) ;
#311 = DIRECTION ( 'NONE',  ( 0.0000000000000000000, 1.000000000000000000, 0.0000000000000000000 ) ) ;
#312 = EDGE_CURVE ( 'NONE', #61, #70, #298, .T. ) ;
#313 = EDGE_LOOP ( 'NONE', ( #347, #187, #46 ) ) ;
#314 = VECTOR ( 'NONE', #169, 1000.000000000000000 ) ;
#315 = EDGE_LOOP ( 'NONE', ( #203, #15, #87 ) ) ;
#316 = SURFACE_SIDE_STYLE ('',( #275 ) ) ;
#317 = AXIS2_PLACEMENT_3D ( 'NONE', #120, #45, #292 ) ;
#318 = VECTOR ( 'NONE', #59, 1000.000000000000000 ) ;
#319 = ADVANCED_FACE ( 'NONE', ( #322 ), #140, .T. ) ;
#320 = AXIS2_PLACEMENT_3D ( 'NONE', #91, #38, #310 ) ;
#321 = CARTESIAN_POINT ( 'NONE',  ( -0.5519199926577972300, 0.0000000000000000000, 0.0000000000000000000 ) ) ;
#322 = FACE_OUTER_BOUND ( 'NONE', #58, .T. ) ;
#323 = EDGE_CURVE ( 'NONE', #70, #344, #243, .T. ) ;
#324 = ORIENTED_EDGE ( 'NONE', *, *, #256, .F. ) ;
#325 =( NAMED_UNIT ( * ) SI_UNIT ( $, .STERADIAN. ) SOLID_ANGLE_UNIT ( ) );
#326 = PRESENTATION_STYLE_ASSIGNMENT (( #112 ) ) ;
#327 = SURFACE_SIDE_STYLE ('',( #268 ) ) ;
#328 = MANIFOLD_SOLID_BREP ( 'Ðý×ª3', #111 ) ;
#329 = DIRECTION ( 'NONE',  ( -0.0000000000000000000, 1.000000000000000000, 1.224646799147353200E-016 ) ) ;
#330 = AXIS2_PLACEMENT_3D ( 'NONE', #1, #242, #184 ) ;
#331 = AXIS2_PLACEMENT_3D ( 'NONE', #137, #233, #66 ) ;
#332 = CARTESIAN_POINT ( 'NONE',  ( -9.702612178336682500, 0.0000000000000000000, 0.0000000000000000000 ) ) ;
#333 = ORIENTED_EDGE ( 'NONE', *, *, #248, .F. ) ;
#334 = CARTESIAN_POINT ( 'NONE',  ( -15.57018482288144100, 0.0000000000000000000, -2.714105966198940700E-016 ) ) ;
#335 = PRODUCT_DEFINITION_CONTEXT ( 'detailed design', #109, 'design' ) ;
#336 = ORIENTED_EDGE ( 'NONE', *, *, #186, .F. ) ;
#337 = CARTESIAN_POINT ( 'NONE',  ( 57.22981517711856000, 0.0000000000000000000, -1.201227822710680100E-016 ) ) ;
#338 = AXIS2_PLACEMENT_3D ( 'NONE', #337, #214, #218 ) ;
#339 = UNCERTAINTY_MEASURE_WITH_UNIT (LENGTH_MEASURE( 1.000000000000000100E-005 ), #300, 'distance_accuracy_value', 'NONE');
#340 = DIRECTION ( 'NONE',  ( 0.0000000000000000000, -1.000000000000000000, 0.0000000000000000000 ) ) ;
#341 = DIRECTION ( 'NONE',  ( 0.0000000000000000000, 0.0000000000000000000, 1.000000000000000000 ) ) ;
#342 = ORIENTED_EDGE ( 'NONE', *, *, #127, .T. ) ;
#343 = ADVANCED_FACE ( 'NONE', ( #197 ), #225, .T. ) ;
#344 = VERTEX_POINT ( 'NONE', #29 ) ;
#345 = MECHANICAL_DESIGN_GEOMETRIC_PRESENTATION_REPRESENTATION (  '', ( #206 ), #163 ) ;
#346 =( NAMED_UNIT ( * ) PLANE_ANGLE_UNIT ( ) SI_UNIT ( $, .RADIAN. ) );
#347 = ORIENTED_EDGE ( 'NONE', *, *, #323, .F. ) ;
ENDSEC;
END-ISO-10303-21;
