ISO-10303-21;
HEADER;
FILE_DESCRIPTION (( 'STEP AP214' ),
    '1' );
FILE_NAME ('145013.STEP',
    '2019-05-08T06:20:37',
    ( 'user' ),
    ( 'Î¢ÈíÖÐ¹ú' ),
    'SwSTEP 2.0',
    'SolidWorks 2016',
    '' );
FILE_SCHEMA (( 'AUTOMOTIVE_DESIGN' ));
ENDSEC;

DATA;
#1 = FILL_AREA_STYLE ('',( #268 ) ) ;
#2 = ORIENTED_EDGE ( 'NONE', *, *, #68, .T. ) ;
#3 = DIRECTION ( 'NONE',  ( 0.0000000000000000000, 0.0000000000000000000, 1.000000000000000000 ) ) ;
#4 = DIRECTION ( 'NONE',  ( -1.000000000000000000, -0.0000000000000000000, -0.0000000000000000000 ) ) ;
#5 = VERTEX_POINT ( 'NONE', #249 ) ;
#6 = DIRECTION ( 'NONE',  ( 0.0000000000000000000, 0.0000000000000000000, 1.000000000000000000 ) ) ;
#7 = MECHANICAL_DESIGN_GEOMETRIC_PRESENTATION_REPRESENTATION (  '', ( #321 ), #22 ) ;
#8 = DIRECTION ( 'NONE',  ( 0.0000000000000000000, -1.224646799147353500E-016, 1.000000000000000000 ) ) ;
#9 = CARTESIAN_POINT ( 'NONE',  ( -5.052560573809792300, 0.0000000000000000000, -6.776263578034402700E-018 ) ) ;
#10 = ORIENTED_EDGE ( 'NONE', *, *, #212, .F. ) ;
#11 = DIRECTION ( 'NONE',  ( -0.0000000000000000000, 1.000000000000000000, 1.224646799147353200E-016 ) ) ;
#12 = SURFACE_SIDE_STYLE ('',( #215 ) ) ;
#13 = EDGE_CURVE ( 'NONE', #231, #124, #256, .T. ) ;
#14 = AXIS2_PLACEMENT_3D ( 'NONE', #142, #195, #55 ) ;
#15 = EDGE_CURVE ( 'NONE', #17, #211, #182, .T. ) ;
#16 = CARTESIAN_POINT ( 'NONE',  ( -0.07969671080288245900, 0.0000000000000000000, 3.174999999999999800 ) ) ;
#17 = VERTEX_POINT ( 'NONE', #225 ) ;
#18 = SPHERICAL_SURFACE ( 'NONE', #83, 40.39999999999999900 ) ;
#19 = VERTEX_POINT ( 'NONE', #59 ) ;
#20 = CYLINDRICAL_SURFACE ( 'NONE', #275, 3.174999999999998900 ) ;
#21 = ORIENTED_EDGE ( 'NONE', *, *, #85, .T. ) ;
#22 =( GEOMETRIC_REPRESENTATION_CONTEXT ( 3 ) GLOBAL_UNCERTAINTY_ASSIGNED_CONTEXT ( ( #189 ) ) GLOBAL_UNIT_ASSIGNED_CONTEXT ( ( #197, #162, #137 ) ) REPRESENTATION_CONTEXT ( 'NONE', 'WORKASPACE' ) );
#23 = PRESENTATION_STYLE_ASSIGNMENT (( #34 ) ) ;
#24 = CARTESIAN_POINT ( 'NONE',  ( 2.222485981098122600, 0.0000000000000000000, 0.0000000000000000000 ) ) ;
#25 = ORIENTED_EDGE ( 'NONE', *, *, #199, .T. ) ;
#26 = DIRECTION ( 'NONE',  ( -1.000000000000000000, -0.0000000000000000000, -0.0000000000000000000 ) ) ;
#27 = MANIFOLD_SOLID_BREP ( 'Ðý×ª3', #343 ) ;
#28 = CARTESIAN_POINT ( 'NONE',  ( 5.447439426190208600, 0.0000000000000000000, -6.776263590656177200E-018 ) ) ;
#29 = CARTESIAN_POINT ( 'NONE',  ( -38.05256057380979200, 0.0000000000000000000, 0.0000000000000000000 ) ) ;
#30 = CARTESIAN_POINT ( 'NONE',  ( -5.052560573809792300, 0.0000000000000000000, -6.776263578034402700E-018 ) ) ;
#31 = EDGE_CURVE ( 'NONE', #19, #211, #313, .T. ) ;
#32 = AXIS2_PLACEMENT_3D ( 'NONE', #80, #246, #328 ) ;
#33 = ADVANCED_FACE ( 'NONE', ( #155 ), #302, .T. ) ;
#34 = SURFACE_STYLE_USAGE ( .BOTH. , #166 ) ;
#35 = EDGE_CURVE ( 'NONE', #79, #5, #175, .T. ) ;
#36 = EDGE_LOOP ( 'NONE', ( #91, #49, #292 ) ) ;
#37 = EDGE_LOOP ( 'NONE', ( #141, #42, #73 ) ) ;
#38 =( LENGTH_UNIT ( ) NAMED_UNIT ( * ) SI_UNIT ( .MILLI., .METRE. ) );
#39 = DIRECTION ( 'NONE',  ( 0.0000000000000000000, -1.224646799147353500E-016, 1.000000000000000000 ) ) ;
#40 = CYLINDRICAL_SURFACE ( 'NONE', #14, 3.174999999999998900 ) ;
#41 = UNCERTAINTY_MEASURE_WITH_UNIT (LENGTH_MEASURE( 1.000000000000000100E-005 ), #38, 'distance_accuracy_value', 'NONE');
#42 = ORIENTED_EDGE ( 'NONE', *, *, #82, .T. ) ;
#43 = AXIS2_PLACEMENT_3D ( 'NONE', #216, #51, #3 ) ;
#44 = CIRCLE ( 'NONE', #269, 3.174999999999999800 ) ;
#45 = EDGE_CURVE ( 'NONE', #79, #231, #106, .T. ) ;
#46 = AXIS2_PLACEMENT_3D ( 'NONE', #272, #245, #108 ) ;
#47 = UNCERTAINTY_MEASURE_WITH_UNIT (LENGTH_MEASURE( 1.000000000000000100E-005 ), #273, 'distance_accuracy_value', 'NONE');
#48 = EDGE_CURVE ( 'NONE', #19, #54, #131, .T. ) ;
#49 = ORIENTED_EDGE ( 'NONE', *, *, #71, .T. ) ;
#50 = CARTESIAN_POINT ( 'NONE',  ( 5.447439426190208600, 0.0000000000000000000, -6.776263590656177200E-018 ) ) ;
#51 = DIRECTION ( 'NONE',  ( 0.0000000000000000000, 1.000000000000000000, 0.0000000000000000000 ) ) ;
#52 = FILL_AREA_STYLE ('',( #113 ) ) ;
#53 = VECTOR ( 'NONE', #63, 1000.000000000000000 ) ;
#54 = VERTEX_POINT ( 'NONE', #323 ) ;
#55 = DIRECTION ( 'NONE',  ( 0.0000000000000000000, 0.0000000000000000000, 1.000000000000000000 ) ) ;
#56 = ADVANCED_FACE ( 'NONE', ( #64 ), #98, .T. ) ;
#57 = CARTESIAN_POINT ( 'NONE',  ( -0.07969671080288331900, 0.0000000000000000000, 0.0000000000000000000 ) ) ;
#58 = LINE ( 'NONE', #104, #335 ) ;
#59 = CARTESIAN_POINT ( 'NONE',  ( -0.9031018893198324800, 0.0000000000000000000, 3.174999999999999800 ) ) ;
#60 = FILL_AREA_STYLE_COLOUR ( '', #342 ) ;
#61 = AXIS2_PLACEMENT_3D ( 'NONE', #345, #135, #111 ) ;
#62 = COLOUR_RGB ( '',1.000000000000000000, 1.000000000000000000, 1.000000000000000000 ) ;
#63 = DIRECTION ( 'NONE',  ( -1.000000000000000000, -0.0000000000000000000, -0.0000000000000000000 ) ) ;
#64 = FACE_OUTER_BOUND ( 'NONE', #36, .T. ) ;
#65 = ORIENTED_EDGE ( 'NONE', *, *, #48, .F. ) ;
#66 = DIRECTION ( 'NONE',  ( -0.0000000000000000000, 1.000000000000000000, 1.224646799147353200E-016 ) ) ;
#67 =( NAMED_UNIT ( * ) SI_UNIT ( $, .STERADIAN. ) SOLID_ANGLE_UNIT ( ) );
#68 = EDGE_CURVE ( 'NONE', #288, #17, #336, .T. ) ;
#69 = DIRECTION ( 'NONE',  ( 0.0000000000000000000, 0.0000000000000000000, -1.000000000000000000 ) ) ;
#70 =( GEOMETRIC_REPRESENTATION_CONTEXT ( 3 ) GLOBAL_UNCERTAINTY_ASSIGNED_CONTEXT ( ( #255 ) ) GLOBAL_UNIT_ASSIGNED_CONTEXT ( ( #299, #84, #77 ) ) REPRESENTATION_CONTEXT ( 'NONE', 'WORKASPACE' ) );
#71 = EDGE_CURVE ( 'NONE', #239, #79, #339, .T. ) ;
#72 = MECHANICAL_DESIGN_GEOMETRIC_PRESENTATION_REPRESENTATION (  '', ( #251 ), #92 ) ;
#73 = ORIENTED_EDGE ( 'NONE', *, *, #13, .T. ) ;
#74 = SPHERICAL_SURFACE ( 'NONE', #61, 5.899999999999999500 ) ;
#75 = ORIENTED_EDGE ( 'NONE', *, *, #35, .F. ) ;
#76 = AXIS2_PLACEMENT_3D ( 'NONE', #81, #294, #247 ) ;
#77 =( NAMED_UNIT ( * ) SI_UNIT ( $, .STERADIAN. ) SOLID_ANGLE_UNIT ( ) );
#78 = ADVANCED_FACE ( 'NONE', ( #209 ), #20, .T. ) ;
#79 = VERTEX_POINT ( 'NONE', #126 ) ;
#80 = CARTESIAN_POINT ( 'NONE',  ( -0.07969671080288245900, 0.0000000000000000000, 0.0000000000000000000 ) ) ;
#81 = CARTESIAN_POINT ( 'NONE',  ( -5.052560573809792300, 0.0000000000000000000, -6.776263578034402700E-018 ) ) ;
#82 = EDGE_CURVE ( 'NONE', #136, #231, #329, .T. ) ;
#83 = AXIS2_PLACEMENT_3D ( 'NONE', #274, #220, #170 ) ;
#84 =( NAMED_UNIT ( * ) PLANE_ANGLE_UNIT ( ) SI_UNIT ( $, .RADIAN. ) );
#85 = EDGE_CURVE ( 'NONE', #211, #54, #280, .T. ) ;
#86 = ORIENTED_EDGE ( 'NONE', *, *, #71, .F. ) ;
#87 = CIRCLE ( 'NONE', #32, 3.174999999999999800 ) ;
#88 = SURFACE_SIDE_STYLE ('',( #320 ) ) ;
#89 = DIRECTION ( 'NONE',  ( 0.0000000000000000000, 1.000000000000000000, 0.0000000000000000000 ) ) ;
#90 = VERTEX_POINT ( 'NONE', #16 ) ;
#91 = ORIENTED_EDGE ( 'NONE', *, *, #102, .F. ) ;
#92 =( GEOMETRIC_REPRESENTATION_CONTEXT ( 3 ) GLOBAL_UNCERTAINTY_ASSIGNED_CONTEXT ( ( #47 ) ) GLOBAL_UNIT_ASSIGNED_CONTEXT ( ( #273, #193, #168 ) ) REPRESENTATION_CONTEXT ( 'NONE', 'WORKASPACE' ) );
#93 = DIRECTION ( 'NONE',  ( 0.0000000000000000000, 1.000000000000000000, 0.0000000000000000000 ) ) ;
#94 = CARTESIAN_POINT ( 'NONE',  ( 0.0000000000000000000, 0.0000000000000000000, 0.0000000000000000000 ) ) ;
#95 = DIRECTION ( 'NONE',  ( 0.0000000000000000000, -1.000000000000000000, 0.0000000000000000000 ) ) ;
#96 = CIRCLE ( 'NONE', #289, 40.39999999999999900 ) ;
#97 = ORIENTED_EDGE ( 'NONE', *, *, #212, .T. ) ;
#98 = SPHERICAL_SURFACE ( 'NONE', #205, 40.39999999999999900 ) ;
#99 = PRODUCT_RELATED_PRODUCT_CATEGORY ( 'part', '', ( #306 ) ) ;
#100 = ORIENTED_EDGE ( 'NONE', *, *, #85, .F. ) ;
#101 = APPLICATION_PROTOCOL_DEFINITION ( 'draft international standard', 'automotive_design', 1998, #115 ) ;
#102 = EDGE_CURVE ( 'NONE', #239, #5, #96, .T. ) ;
#103 = EDGE_CURVE ( 'NONE', #211, #19, #171, .T. ) ;
#104 = CARTESIAN_POINT ( 'NONE',  ( -9.702612178336682500, 0.0000000000000000000, 3.174999999999999800 ) ) ;
#105 = ADVANCED_BREP_SHAPE_REPRESENTATION ( '145013', ( #210, #27, #236 ), #70 ) ;
#106 = LINE ( 'NONE', #295, #204 ) ;
#107 = DIRECTION ( 'NONE',  ( -1.000000000000000000, -0.0000000000000000000, -0.0000000000000000000 ) ) ;
#108 = DIRECTION ( 'NONE',  ( 0.0000000000000000000, 0.0000000000000000000, 1.000000000000000000 ) ) ;
#109 = ADVANCED_FACE ( 'NONE', ( #140 ), #134, .T. ) ;
#110 = AXIS2_PLACEMENT_3D ( 'NONE', #297, #229, #143 ) ;
#111 = DIRECTION ( 'NONE',  ( 0.0000000000000000000, 0.0000000000000000000, 1.000000000000000000 ) ) ;
#112 = DIRECTION ( 'NONE',  ( -1.000000000000000000, -0.0000000000000000000, -0.0000000000000000000 ) ) ;
#113 = FILL_AREA_STYLE_COLOUR ( '', #62 ) ;
#114 = ORIENTED_EDGE ( 'NONE', *, *, #31, .F. ) ;
#115 = APPLICATION_CONTEXT ( 'automotive_design' ) ;
#116 = FACE_OUTER_BOUND ( 'NONE', #149, .T. ) ;
#117 = EDGE_LOOP ( 'NONE', ( #337, #305, #114, #10 ) ) ;
#118 = CARTESIAN_POINT ( 'NONE',  ( 2.222485981098122600, 0.0000000000000000000, 0.0000000000000000000 ) ) ;
#119 = SURFACE_STYLE_USAGE ( .BOTH. , #88 ) ;
#120 = DIRECTION ( 'NONE',  ( 0.0000000000000000000, 0.0000000000000000000, 1.000000000000000000 ) ) ;
#121 = COLOUR_RGB ( '',1.000000000000000000, 1.000000000000000000, 1.000000000000000000 ) ;
#122 = CARTESIAN_POINT ( 'NONE',  ( 5.447439426190208600, 0.0000000000000000000, -6.776263590656177200E-018 ) ) ;
#123 = DIRECTION ( 'NONE',  ( 1.000000000000000000, 0.0000000000000000000, 0.0000000000000000000 ) ) ;
#124 = VERTEX_POINT ( 'NONE', #258 ) ;
#125 = EDGE_CURVE ( 'NONE', #136, #124, #242, .T. ) ;
#126 = CARTESIAN_POINT ( 'NONE',  ( 2.222485981098122600, 0.0000000000000000000, 3.174999999999998000 ) ) ;
#127 = STYLED_ITEM ( 'NONE', ( #287 ), #105 ) ;
#128 = EDGE_CURVE ( 'NONE', #5, #124, #248, .T. ) ;
#129 = PRODUCT_DEFINITION_SHAPE ( 'NONE', 'NONE',  #252 ) ;
#130 = AXIS2_PLACEMENT_3D ( 'NONE', #118, #202, #226 ) ;
#131 = CIRCLE ( 'NONE', #167, 7.100000000000000500 ) ;
#132 = ORIENTED_EDGE ( 'NONE', *, *, #35, .T. ) ;
#133 = SPHERICAL_SURFACE ( 'NONE', #76, 5.899999999999999500 ) ;
#134 = SPHERICAL_SURFACE ( 'NONE', #200, 7.100000000000000500 ) ;
#135 = DIRECTION ( 'NONE',  ( 0.0000000000000000000, 1.000000000000000000, 0.0000000000000000000 ) ) ;
#136 = VERTEX_POINT ( 'NONE', #235 ) ;
#137 =( NAMED_UNIT ( * ) SI_UNIT ( $, .STERADIAN. ) SOLID_ANGLE_UNIT ( ) );
#138 = CARTESIAN_POINT ( 'NONE',  ( -0.9031018893198324800, 3.888253587292846100E-016, -3.174999999999999800 ) ) ;
#139 = CARTESIAN_POINT ( 'NONE',  ( -5.052560573809792300, 0.0000000000000000000, -6.776263578034402700E-018 ) ) ;
#140 = FACE_OUTER_BOUND ( 'NONE', #201, .T. ) ;
#141 = ORIENTED_EDGE ( 'NONE', *, *, #125, .F. ) ;
#142 = CARTESIAN_POINT ( 'NONE',  ( -0.5519199926577972300, 0.0000000000000000000, 0.0000000000000000000 ) ) ;
#143 = DIRECTION ( 'NONE',  ( 0.0000000000000000000, 0.0000000000000000000, 1.000000000000000000 ) ) ;
#144 = EDGE_CURVE ( 'NONE', #288, #90, #316, .T. ) ;
#145 = PRESENTATION_LAYER_ASSIGNMENT (  '', '', ( #127 ) ) ;
#146 = CARTESIAN_POINT ( 'NONE',  ( -9.702612178336682500, 0.0000000000000000000, 0.0000000000000000000 ) ) ;
#147 = EDGE_LOOP ( 'NONE', ( #331, #25, #185, #160 ) ) ;
#148 = CARTESIAN_POINT ( 'NONE',  ( -5.052560573809792300, 0.0000000000000000000, -6.776263578034402700E-018 ) ) ;
#149 = EDGE_LOOP ( 'NONE', ( #86, #265, #75 ) ) ;
#150 = AXIS2_PLACEMENT_3D ( 'NONE', #30, #300, #196 ) ;
#151 = DIRECTION ( 'NONE',  ( 0.0000000000000000000, 0.0000000000000000000, -1.000000000000000000 ) ) ;
#152 = DIRECTION ( 'NONE',  ( 0.0000000000000000000, -1.000000000000000000, 0.0000000000000000000 ) ) ;
#153 = APPLICATION_CONTEXT ( 'automotive_design' ) ;
#154 = CARTESIAN_POINT ( 'NONE',  ( -38.05256057380979200, 0.0000000000000000000, 0.0000000000000000000 ) ) ;
#155 = FACE_OUTER_BOUND ( 'NONE', #250, .T. ) ;
#156 = ORIENTED_EDGE ( 'NONE', *, *, #13, .F. ) ;
#157 = ORIENTED_EDGE ( 'NONE', *, *, #128, .T. ) ;
#158 = EDGE_CURVE ( 'NONE', #124, #231, #330, .T. ) ;
#159 = MECHANICAL_DESIGN_GEOMETRIC_PRESENTATION_REPRESENTATION (  '', ( #127 ), #180 ) ;
#160 = ORIENTED_EDGE ( 'NONE', *, *, #158, .F. ) ;
#161 = DIRECTION ( 'NONE',  ( 0.0000000000000000000, 0.0000000000000000000, 1.000000000000000000 ) ) ;
#162 =( NAMED_UNIT ( * ) PLANE_ANGLE_UNIT ( ) SI_UNIT ( $, .RADIAN. ) );
#163 = ORIENTED_EDGE ( 'NONE', *, *, #144, .T. ) ;
#164 = DIRECTION ( 'NONE',  ( -1.000000000000000000, -0.0000000000000000000, -0.0000000000000000000 ) ) ;
#165 = ORIENTED_EDGE ( 'NONE', *, *, #68, .F. ) ;
#166 = SURFACE_SIDE_STYLE ('',( #184 ) ) ;
#167 = AXIS2_PLACEMENT_3D ( 'NONE', #28, #223, #151 ) ;
#168 =( NAMED_UNIT ( * ) SI_UNIT ( $, .STERADIAN. ) SOLID_ANGLE_UNIT ( ) );
#169 = ADVANCED_FACE ( 'NONE', ( #194 ), #326, .T. ) ;
#170 = DIRECTION ( 'NONE',  ( 0.0000000000000000000, 0.0000000000000000000, 1.000000000000000000 ) ) ;
#171 = CIRCLE ( 'NONE', #310, 3.174999999999999800 ) ;
#172 = ORIENTED_EDGE ( 'NONE', *, *, #341, .F. ) ;
#173 = DIRECTION ( 'NONE',  ( 0.0000000000000000000, 0.0000000000000000000, 1.000000000000000000 ) ) ;
#174 = DIRECTION ( 'NONE',  ( 0.0000000000000000000, 0.0000000000000000000, 1.000000000000000000 ) ) ;
#175 = CIRCLE ( 'NONE', #130, 3.174999999999998000 ) ;
#176 = EDGE_LOOP ( 'NONE', ( #187, #2, #213 ) ) ;
#177 = CARTESIAN_POINT ( 'NONE',  ( -0.9031018893198329300, 0.0000000000000000000, 0.0000000000000000000 ) ) ;
#178 = DIRECTION ( 'NONE',  ( 0.0000000000000000000, -1.224646799147353200E-016, 1.000000000000000000 ) ) ;
#179 = EDGE_CURVE ( 'NONE', #90, #17, #44, .T. ) ;
#180 =( GEOMETRIC_REPRESENTATION_CONTEXT ( 3 ) GLOBAL_UNCERTAINTY_ASSIGNED_CONTEXT ( ( #41 ) ) GLOBAL_UNIT_ASSIGNED_CONTEXT ( ( #38, #233, #67 ) ) REPRESENTATION_CONTEXT ( 'NONE', 'WORKASPACE' ) );
#181 = SHAPE_DEFINITION_REPRESENTATION ( #129, #105 ) ;
#182 = LINE ( 'NONE', #198, #290 ) ;
#183 = AXIS2_PLACEMENT_3D ( 'NONE', #148, #308, #8 ) ;
#184 = SURFACE_STYLE_FILL_AREA ( #1 ) ;
#185 = ORIENTED_EDGE ( 'NONE', *, *, #45, .T. ) ;
#186 = FACE_OUTER_BOUND ( 'NONE', #117, .T. ) ;
#187 = ORIENTED_EDGE ( 'NONE', *, *, #144, .F. ) ;
#188 = CARTESIAN_POINT ( 'NONE',  ( -0.07969671080288245900, 0.0000000000000000000, 0.0000000000000000000 ) ) ;
#189 = UNCERTAINTY_MEASURE_WITH_UNIT (LENGTH_MEASURE( 1.000000000000000100E-005 ), #197, 'distance_accuracy_value', 'NONE');
#190 = DIRECTION ( 'NONE',  ( 0.0000000000000000000, 0.0000000000000000000, 1.000000000000000000 ) ) ;
#191 = ADVANCED_FACE ( 'NONE', ( #244 ), #264, .T. ) ;
#192 = DIRECTION ( 'NONE',  ( 0.0000000000000000000, 0.0000000000000000000, 1.000000000000000000 ) ) ;
#193 =( NAMED_UNIT ( * ) PLANE_ANGLE_UNIT ( ) SI_UNIT ( $, .RADIAN. ) );
#194 = FACE_OUTER_BOUND ( 'NONE', #307, .T. ) ;
#195 = DIRECTION ( 'NONE',  ( -1.000000000000000000, -0.0000000000000000000, -0.0000000000000000000 ) ) ;
#196 = DIRECTION ( 'NONE',  ( 0.0000000000000000000, 0.0000000000000000000, 1.000000000000000000 ) ) ;
#197 =( LENGTH_UNIT ( ) NAMED_UNIT ( * ) SI_UNIT ( .MILLI., .METRE. ) );
#198 = CARTESIAN_POINT ( 'NONE',  ( -9.702612178336682500, 3.888253587292846100E-016, -3.174999999999999800 ) ) ;
#199 = EDGE_CURVE ( 'NONE', #5, #79, #261, .T. ) ;
#200 = AXIS2_PLACEMENT_3D ( 'NONE', #122, #93, #281 ) ;
#201 = EDGE_LOOP ( 'NONE', ( #100, #317, #208 ) ) ;
#202 = DIRECTION ( 'NONE',  ( -1.000000000000000000, -0.0000000000000000000, -0.0000000000000000000 ) ) ;
#203 = CARTESIAN_POINT ( 'NONE',  ( -0.5519199926577972300, 3.888253587292845100E-016, -3.174999999999998900 ) ) ;
#204 = VECTOR ( 'NONE', #301, 1000.000000000000000 ) ;
#205 = AXIS2_PLACEMENT_3D ( 'NONE', #29, #89, #174 ) ;
#206 = SURFACE_STYLE_USAGE ( .BOTH. , #12 ) ;
#207 = DIRECTION ( 'NONE',  ( -0.0000000000000000000, 1.000000000000000000, 1.224646799147353200E-016 ) ) ;
#208 = ORIENTED_EDGE ( 'NONE', *, *, #48, .T. ) ;
#209 = FACE_OUTER_BOUND ( 'NONE', #147, .T. ) ;
#210 = MANIFOLD_SOLID_BREP ( 'Ðý×ª1', #340 ) ;
#211 = VERTEX_POINT ( 'NONE', #138 ) ;
#212 = EDGE_CURVE ( 'NONE', #90, #19, #58, .T. ) ;
#213 = ORIENTED_EDGE ( 'NONE', *, *, #179, .F. ) ;
#214 = AXIS2_PLACEMENT_3D ( 'NONE', #139, #271, #296 ) ;
#215 = SURFACE_STYLE_FILL_AREA ( #52 ) ;
#216 = CARTESIAN_POINT ( 'NONE',  ( -5.052560573809792300, 0.0000000000000000000, -6.776263578034402700E-018 ) ) ;
#217 = DIRECTION ( 'NONE',  ( 0.0000000000000000000, 0.0000000000000000000, 1.000000000000000000 ) ) ;
#218 = ADVANCED_FACE ( 'NONE', ( #283 ), #74, .F. ) ;
#219 = EDGE_LOOP ( 'NONE', ( #270, #21, #65 ) ) ;
#220 = DIRECTION ( 'NONE',  ( 0.0000000000000000000, 1.000000000000000000, 0.0000000000000000000 ) ) ;
#221 = AXIS2_PLACEMENT_3D ( 'NONE', #154, #152, #332 ) ;
#222 = CARTESIAN_POINT ( 'NONE',  ( 0.8474394261902074000, 0.0000000000000000000, 3.544945421704348100E-016 ) ) ;
#223 = DIRECTION ( 'NONE',  ( 0.0000000000000000000, -1.000000000000000000, 0.0000000000000000000 ) ) ;
#224 = CARTESIAN_POINT ( 'NONE',  ( -0.07969671080288331900, 0.0000000000000000000, 3.174999999999999800 ) ) ;
#225 = CARTESIAN_POINT ( 'NONE',  ( -0.07969671080288245900, 3.888253587292846100E-016, -3.174999999999999800 ) ) ;
#226 = DIRECTION ( 'NONE',  ( 0.0000000000000000000, 0.0000000000000000000, 1.000000000000000000 ) ) ;
#227 = ORIENTED_EDGE ( 'NONE', *, *, #158, .T. ) ;
#228 = FACE_OUTER_BOUND ( 'NONE', #176, .T. ) ;
#229 = DIRECTION ( 'NONE',  ( -1.000000000000000000, -0.0000000000000000000, -0.0000000000000000000 ) ) ;
#230 = FILL_AREA_STYLE ('',( #60 ) ) ;
#231 = VERTEX_POINT ( 'NONE', #224 ) ;
#232 = CARTESIAN_POINT ( 'NONE',  ( -38.05256057380979200, 0.0000000000000000000, 0.0000000000000000000 ) ) ;
#233 =( NAMED_UNIT ( * ) PLANE_ANGLE_UNIT ( ) SI_UNIT ( $, .RADIAN. ) );
#234 = AXIS2_PLACEMENT_3D ( 'NONE', #57, #112, #6 ) ;
#235 = CARTESIAN_POINT ( 'NONE',  ( 0.8474394261902074000, 0.0000000000000000000, 3.544945421704348100E-016 ) ) ;
#236 = AXIS2_PLACEMENT_3D ( 'NONE', #94, #282, #123 ) ;
#237 = ORIENTED_EDGE ( 'NONE', *, *, #125, .T. ) ;
#238 = AXIS2_PLACEMENT_3D ( 'NONE', #346, #26, #190 ) ;
#239 = VERTEX_POINT ( 'NONE', #325 ) ;
#240 = ORIENTED_EDGE ( 'NONE', *, *, #15, .F. ) ;
#241 = AXIS2_PLACEMENT_3D ( 'NONE', #311, #66, #260 ) ;
#242 = CIRCLE ( 'NONE', #327, 5.899999999999999500 ) ;
#243 = DIRECTION ( 'NONE',  ( 0.0000000000000000000, 1.000000000000000000, 0.0000000000000000000 ) ) ;
#244 = FACE_OUTER_BOUND ( 'NONE', #219, .T. ) ;
#245 = DIRECTION ( 'NONE',  ( -1.000000000000000000, -0.0000000000000000000, -0.0000000000000000000 ) ) ;
#246 = DIRECTION ( 'NONE',  ( -1.000000000000000000, -0.0000000000000000000, -0.0000000000000000000 ) ) ;
#247 = DIRECTION ( 'NONE',  ( 0.0000000000000000000, 0.0000000000000000000, 1.000000000000000000 ) ) ;
#248 = LINE ( 'NONE', #203, #53 ) ;
#249 = CARTESIAN_POINT ( 'NONE',  ( 2.222485981098122600, 3.888253587292845100E-016, -3.174999999999998000 ) ) ;
#250 = EDGE_LOOP ( 'NONE', ( #165, #163, #172 ) ) ;
#251 = STYLED_ITEM ( 'NONE', ( #284 ), #27 ) ;
#252 = PRODUCT_DEFINITION ( 'Î´Öª', '', #267, #278 ) ;
#253 = AXIS2_PLACEMENT_3D ( 'NONE', #24, #4, #192 ) ;
#254 = CARTESIAN_POINT ( 'NONE',  ( -0.5519199926577972300, 0.0000000000000000000, 0.0000000000000000000 ) ) ;
#255 = UNCERTAINTY_MEASURE_WITH_UNIT (LENGTH_MEASURE( 1.000000000000000100E-005 ), #299, 'distance_accuracy_value', 'NONE');
#256 = CIRCLE ( 'NONE', #234, 3.174999999999999400 ) ;
#257 = DIRECTION ( 'NONE',  ( -1.000000000000000000, -0.0000000000000000000, -0.0000000000000000000 ) ) ;
#258 = CARTESIAN_POINT ( 'NONE',  ( -0.07969671080288331900, 3.888253587292846100E-016, -3.174999999999999800 ) ) ;
#259 = AXIS2_PLACEMENT_3D ( 'NONE', #334, #95, #69 ) ;
#260 = DIRECTION ( 'NONE',  ( 0.0000000000000000000, -1.224646799147353200E-016, 1.000000000000000000 ) ) ;
#261 = CIRCLE ( 'NONE', #253, 3.174999999999998000 ) ;
#262 = EDGE_LOOP ( 'NONE', ( #303, #237, #227 ) ) ;
#263 = ORIENTED_EDGE ( 'NONE', *, *, #341, .T. ) ;
#264 = SPHERICAL_SURFACE ( 'NONE', #304, 7.100000000000000500 ) ;
#265 = ORIENTED_EDGE ( 'NONE', *, *, #102, .T. ) ;
#266 = PRESENTATION_LAYER_ASSIGNMENT (  '', '', ( #251 ) ) ;
#267 = PRODUCT_DEFINITION_FORMATION_WITH_SPECIFIED_SOURCE ( 'ÈÎºÎ', '', #306, .NOT_KNOWN. ) ;
#268 = FILL_AREA_STYLE_COLOUR ( '', #121 ) ;
#269 = AXIS2_PLACEMENT_3D ( 'NONE', #188, #344, #161 ) ;
#270 = ORIENTED_EDGE ( 'NONE', *, *, #31, .T. ) ;
#271 = DIRECTION ( 'NONE',  ( 0.0000000000000000000, -1.000000000000000000, 0.0000000000000000000 ) ) ;
#272 = CARTESIAN_POINT ( 'NONE',  ( -9.702612178336682500, 0.0000000000000000000, 0.0000000000000000000 ) ) ;
#273 =( LENGTH_UNIT ( ) NAMED_UNIT ( * ) SI_UNIT ( .MILLI., .METRE. ) );
#274 = CARTESIAN_POINT ( 'NONE',  ( -38.05256057380979200, 0.0000000000000000000, 0.0000000000000000000 ) ) ;
#275 = AXIS2_PLACEMENT_3D ( 'NONE', #254, #314, #173 ) ;
#276 = ADVANCED_FACE ( 'NONE', ( #277 ), #133, .F. ) ;
#277 = FACE_OUTER_BOUND ( 'NONE', #37, .T. ) ;
#278 = PRODUCT_DEFINITION_CONTEXT ( 'detailed design', #153, 'design' ) ;
#279 = EDGE_LOOP ( 'NONE', ( #132, #157, #156, #298 ) ) ;
#280 = CIRCLE ( 'NONE', #241, 7.100000000000000500 ) ;
#281 = DIRECTION ( 'NONE',  ( 0.0000000000000000000, 0.0000000000000000000, 1.000000000000000000 ) ) ;
#282 = DIRECTION ( 'NONE',  ( 0.0000000000000000000, 0.0000000000000000000, 1.000000000000000000 ) ) ;
#283 = FACE_OUTER_BOUND ( 'NONE', #262, .T. ) ;
#284 = PRESENTATION_STYLE_ASSIGNMENT (( #119 ) ) ;
#285 = ORIENTED_EDGE ( 'NONE', *, *, #103, .F. ) ;
#286 = AXIS2_PLACEMENT_3D ( 'NONE', #146, #164, #217 ) ;
#287 = PRESENTATION_STYLE_ASSIGNMENT (( #206 ) ) ;
#288 = VERTEX_POINT ( 'NONE', #222 ) ;
#289 = AXIS2_PLACEMENT_3D ( 'NONE', #232, #11, #178 ) ;
#290 = VECTOR ( 'NONE', #257, 1000.000000000000000 ) ;
#291 = ADVANCED_FACE ( 'NONE', ( #293 ), #40, .T. ) ;
#292 = ORIENTED_EDGE ( 'NONE', *, *, #199, .F. ) ;
#293 = FACE_OUTER_BOUND ( 'NONE', #279, .T. ) ;
#294 = DIRECTION ( 'NONE',  ( 0.0000000000000000000, 1.000000000000000000, 0.0000000000000000000 ) ) ;
#295 = CARTESIAN_POINT ( 'NONE',  ( -0.5519199926577972300, 0.0000000000000000000, 3.174999999999998900 ) ) ;
#296 = DIRECTION ( 'NONE',  ( 0.0000000000000000000, 0.0000000000000000000, -1.000000000000000000 ) ) ;
#297 = CARTESIAN_POINT ( 'NONE',  ( -0.9031018893198329300, 0.0000000000000000000, 0.0000000000000000000 ) ) ;
#298 = ORIENTED_EDGE ( 'NONE', *, *, #45, .F. ) ;
#299 =( LENGTH_UNIT ( ) NAMED_UNIT ( * ) SI_UNIT ( .MILLI., .METRE. ) );
#300 = DIRECTION ( 'NONE',  ( 0.0000000000000000000, 1.000000000000000000, 0.0000000000000000000 ) ) ;
#301 = DIRECTION ( 'NONE',  ( -1.000000000000000000, -0.0000000000000000000, -0.0000000000000000000 ) ) ;
#302 = SPHERICAL_SURFACE ( 'NONE', #150, 5.899999999999999500 ) ;
#303 = ORIENTED_EDGE ( 'NONE', *, *, #82, .F. ) ;
#304 = AXIS2_PLACEMENT_3D ( 'NONE', #50, #243, #319 ) ;
#305 = ORIENTED_EDGE ( 'NONE', *, *, #15, .T. ) ;
#306 = PRODUCT ( '145013', '145013', '', ( #312 ) ) ;
#307 = EDGE_LOOP ( 'NONE', ( #240, #263, #97, #285 ) ) ;
#308 = DIRECTION ( 'NONE',  ( -0.0000000000000000000, 1.000000000000000000, 1.224646799147353200E-016 ) ) ;
#309 = DIRECTION ( 'NONE',  ( -1.000000000000000000, -0.0000000000000000000, -0.0000000000000000000 ) ) ;
#310 = AXIS2_PLACEMENT_3D ( 'NONE', #177, #309, #120 ) ;
#311 = CARTESIAN_POINT ( 'NONE',  ( 5.447439426190208600, 0.0000000000000000000, -6.776263590656177200E-018 ) ) ;
#312 = PRODUCT_CONTEXT ( 'NONE', #115, 'mechanical' ) ;
#313 = CIRCLE ( 'NONE', #110, 3.174999999999999800 ) ;
#314 = DIRECTION ( 'NONE',  ( -1.000000000000000000, -0.0000000000000000000, -0.0000000000000000000 ) ) ;
#315 = CYLINDRICAL_SURFACE ( 'NONE', #46, 3.174999999999999800 ) ;
#316 = CIRCLE ( 'NONE', #214, 5.899999999999999500 ) ;
#317 = ORIENTED_EDGE ( 'NONE', *, *, #103, .T. ) ;
#318 = SPHERICAL_SURFACE ( 'NONE', #43, 5.899999999999999500 ) ;
#319 = DIRECTION ( 'NONE',  ( 0.0000000000000000000, 0.0000000000000000000, 1.000000000000000000 ) ) ;
#320 = SURFACE_STYLE_FILL_AREA ( #230 ) ;
#321 = STYLED_ITEM ( 'NONE', ( #23 ), #210 ) ;
#322 = ADVANCED_FACE ( 'NONE', ( #228 ), #318, .T. ) ;
#323 = CARTESIAN_POINT ( 'NONE',  ( -1.652560573809792200, 0.0000000000000000000, 4.279733501066542100E-016 ) ) ;
#324 = ADVANCED_FACE ( 'NONE', ( #186 ), #315, .T. ) ;
#325 = CARTESIAN_POINT ( 'NONE',  ( 2.347439426190208100, 0.0000000000000000000, 2.473786534277653200E-015 ) ) ;
#326 = CYLINDRICAL_SURFACE ( 'NONE', #286, 3.174999999999999800 ) ;
#327 = AXIS2_PLACEMENT_3D ( 'NONE', #9, #207, #39 ) ;
#328 = DIRECTION ( 'NONE',  ( 0.0000000000000000000, 0.0000000000000000000, 1.000000000000000000 ) ) ;
#329 = CIRCLE ( 'NONE', #259, 5.899999999999999500 ) ;
#330 = CIRCLE ( 'NONE', #238, 3.174999999999999400 ) ;
#331 = ORIENTED_EDGE ( 'NONE', *, *, #128, .F. ) ;
#332 = DIRECTION ( 'NONE',  ( 0.0000000000000000000, 0.0000000000000000000, -1.000000000000000000 ) ) ;
#333 = APPLICATION_PROTOCOL_DEFINITION ( 'draft international standard', 'automotive_design', 1998, #153 ) ;
#334 = CARTESIAN_POINT ( 'NONE',  ( -5.052560573809792300, 0.0000000000000000000, -6.776263578034402700E-018 ) ) ;
#335 = VECTOR ( 'NONE', #107, 1000.000000000000000 ) ;
#336 = CIRCLE ( 'NONE', #183, 5.899999999999999500 ) ;
#337 = ORIENTED_EDGE ( 'NONE', *, *, #179, .T. ) ;
#338 = PRESENTATION_LAYER_ASSIGNMENT (  '', '', ( #321 ) ) ;
#339 = CIRCLE ( 'NONE', #221, 40.39999999999999900 ) ;
#340 = CLOSED_SHELL ( 'NONE', ( #322, #324, #191, #109, #169, #33 ) ) ;
#341 = EDGE_CURVE ( 'NONE', #17, #90, #87, .T. ) ;
#342 = COLOUR_RGB ( '',1.000000000000000000, 1.000000000000000000, 1.000000000000000000 ) ;
#343 = CLOSED_SHELL ( 'NONE', ( #347, #291, #218, #276, #78, #56 ) ) ;
#344 = DIRECTION ( 'NONE',  ( -1.000000000000000000, -0.0000000000000000000, -0.0000000000000000000 ) ) ;
#345 = CARTESIAN_POINT ( 'NONE',  ( -5.052560573809792300, 0.0000000000000000000, -6.776263578034402700E-018 ) ) ;
#346 = CARTESIAN_POINT ( 'NONE',  ( -0.07969671080288331900, 0.0000000000000000000, 0.0000000000000000000 ) ) ;
#347 = ADVANCED_FACE ( 'NONE', ( #116 ), #18, .T. ) ;
ENDSEC;
END-ISO-10303-21;
