ISO-10303-21;
HEADER;
FILE_DESCRIPTION (( 'STEP AP214' ),
    '1' );
FILE_NAME ('145009.STEP',
    '2019-05-07T03:06:15',
    ( 'user' ),
    ( 'Î¢ÈíÖÐ¹ú' ),
    'SwSTEP 2.0',
    'SolidWorks 2016',
    '' );
FILE_SCHEMA (( 'AUTOMOTIVE_DESIGN' ));
ENDSEC;

DATA;
#1 = ORIENTED_EDGE ( 'NONE', *, *, #303, .F. ) ;
#2 = SURFACE_SIDE_STYLE ('',( #300 ) ) ;
#3 = CARTESIAN_POINT ( 'NONE',  ( 5.475736157168960000, 0.0000000000000000000, 3.149999999999999900 ) ) ;
#4 = ADVANCED_FACE ( 'NONE', ( #272 ), #125, .T. ) ;
#5 = CYLINDRICAL_SURFACE ( 'NONE', #208, 3.149999999999999900 ) ;
#6 =( GEOMETRIC_REPRESENTATION_CONTEXT ( 3 ) GLOBAL_UNCERTAINTY_ASSIGNED_CONTEXT ( ( #243 ) ) GLOBAL_UNIT_ASSIGNED_CONTEXT ( ( #131, #261, #160 ) ) REPRESENTATION_CONTEXT ( 'NONE', 'WORKASPACE' ) );
#7 = CARTESIAN_POINT ( 'NONE',  ( -0.8160621761658039000, 0.0000000000000000000, 0.0000000000000000000 ) ) ;
#8 = ORIENTED_EDGE ( 'NONE', *, *, #49, .F. ) ;
#9 =( NAMED_UNIT ( * ) SI_UNIT ( $, .STERADIAN. ) SOLID_ANGLE_UNIT ( ) );
#10 = DIRECTION ( 'NONE',  ( 0.0000000000000000000, 0.0000000000000000000, 1.000000000000000000 ) ) ;
#11 = CIRCLE ( 'NONE', #202, 8.183999999999997500 ) ;
#12 = LINE ( 'NONE', #23, #163 ) ;
#13 = VERTEX_POINT ( 'NONE', #338 ) ;
#14 = APPLICATION_PROTOCOL_DEFINITION ( 'draft international standard', 'automotive_design', 1998, #66 ) ;
#15 = ORIENTED_EDGE ( 'NONE', *, *, #115, .T. ) ;
#16 = EDGE_CURVE ( 'NONE', #24, #308, #57, .T. ) ;
#17 = SPHERICAL_SURFACE ( 'NONE', #295, 5.395999999999999900 ) ;
#18 = UNCERTAINTY_MEASURE_WITH_UNIT (LENGTH_MEASURE( 1.000000000000000100E-005 ), #82, 'distance_accuracy_value', 'NONE');
#19 = FACE_OUTER_BOUND ( 'NONE', #74, .T. ) ;
#20 = ORIENTED_EDGE ( 'NONE', *, *, #38, .F. ) ;
#21 = AXIS2_PLACEMENT_3D ( 'NONE', #151, #175, #10 ) ;
#22 = SURFACE_STYLE_USAGE ( .BOTH. , #217 ) ;
#23 = CARTESIAN_POINT ( 'NONE',  ( -0.5519199926577972300, 0.0000000000000000000, 3.150000000000000800 ) ) ;
#24 = VERTEX_POINT ( 'NONE', #336 ) ;
#25 = SURFACE_STYLE_USAGE ( .BOTH. , #2 ) ;
#26 = CARTESIAN_POINT ( 'NONE',  ( 1.094604339932686600, 0.0000000000000000000, -3.388131789017201400E-018 ) ) ;
#27 = ADVANCED_FACE ( 'NONE', ( #322 ), #17, .F. ) ;
#28 = VERTEX_POINT ( 'NONE', #268 ) ;
#29 = DIRECTION ( 'NONE',  ( -1.000000000000000000, -0.0000000000000000000, -0.0000000000000000000 ) ) ;
#30 = PRODUCT_DEFINITION_SHAPE ( 'NONE', 'NONE',  #134 ) ;
#31 = DIRECTION ( 'NONE',  ( -0.0000000000000000000, 1.000000000000000000, 1.224646799147353200E-016 ) ) ;
#32 = CARTESIAN_POINT ( 'NONE',  ( 5.475736157168956500, 0.0000000000000000000, 0.0000000000000000000 ) ) ;
#33 = CARTESIAN_POINT ( 'NONE',  ( -0.8160621761658039000, 0.0000000000000000000, 3.149999999999999900 ) ) ;
#34 = ORIENTED_EDGE ( 'NONE', *, *, #200, .T. ) ;
#35 = CARTESIAN_POINT ( 'NONE',  ( 11.71460433993268400, 0.0000000000000000000, -2.562809348022867400E-017 ) ) ;
#36 = CARTESIAN_POINT ( 'NONE',  ( 5.475736157168960000, 3.857637417314162700E-016, -3.149999999999999900 ) ) ;
#37 = MANIFOLD_SOLID_BREP ( 'Ðý×ª3', #184 ) ;
#38 = EDGE_CURVE ( 'NONE', #108, #203, #231, .T. ) ;
#39 = DIRECTION ( 'NONE',  ( -1.000000000000000000, -0.0000000000000000000, -0.0000000000000000000 ) ) ;
#40 = AXIS2_PLACEMENT_3D ( 'NONE', #293, #298, #251 ) ;
#41 = EDGE_LOOP ( 'NONE', ( #140, #114, #73, #20 ) ) ;
#42 = CIRCLE ( 'NONE', #148, 8.183999999999997500 ) ;
#43 = STYLED_ITEM ( 'NONE', ( #61 ), #313 ) ;
#44 = EDGE_CURVE ( 'NONE', #204, #292, #11, .T. ) ;
#45 = VERTEX_POINT ( 'NONE', #3 ) ;
#46 = APPLICATION_CONTEXT ( 'automotive_design' ) ;
#47 = CARTESIAN_POINT ( 'NONE',  ( -6.780395660067313200, 0.0000000000000000000, 0.0000000000000000000 ) ) ;
#48 = DIRECTION ( 'NONE',  ( 0.0000000000000000000, 0.0000000000000000000, 1.000000000000000000 ) ) ;
#49 = EDGE_CURVE ( 'NONE', #45, #204, #257, .T. ) ;
#50 = CARTESIAN_POINT ( 'NONE',  ( 1.094604339932686600, 0.0000000000000000000, -3.388131789017201400E-018 ) ) ;
#51 = DIRECTION ( 'NONE',  ( -1.000000000000000000, -0.0000000000000000000, -0.0000000000000000000 ) ) ;
#52 = AXIS2_PLACEMENT_3D ( 'NONE', #240, #256, #141 ) ;
#53 = ORIENTED_EDGE ( 'NONE', *, *, #69, .T. ) ;
#54 = EDGE_CURVE ( 'NONE', #308, #215, #176, .T. ) ;
#55 = DIRECTION ( 'NONE',  ( 0.0000000000000000000, 0.0000000000000000000, 1.000000000000000000 ) ) ;
#56 = DIRECTION ( 'NONE',  ( 1.000000000000000000, 0.0000000000000000000, 0.0000000000000000000 ) ) ;
#57 = CIRCLE ( 'NONE', #136, 5.396000000000000800 ) ;
#58 = DIRECTION ( 'NONE',  ( 0.0000000000000000000, 0.0000000000000000000, 1.000000000000000000 ) ) ;
#59 = FILL_AREA_STYLE ('',( #86 ) ) ;
#60 = DIRECTION ( 'NONE',  ( 0.0000000000000000000, -1.000000000000000000, 0.0000000000000000000 ) ) ;
#61 = PRESENTATION_STYLE_ASSIGNMENT (( #284 ) ) ;
#62 = PRESENTATION_LAYER_ASSIGNMENT (  '', '', ( #43 ) ) ;
#63 = SPHERICAL_SURFACE ( 'NONE', #52, 8.183999999999997500 ) ;
#64 = EDGE_CURVE ( 'NONE', #13, #108, #88, .T. ) ;
#65 = ORIENTED_EDGE ( 'NONE', *, *, #186, .F. ) ;
#66 = APPLICATION_CONTEXT ( 'automotive_design' ) ;
#67 = CARTESIAN_POINT ( 'NONE',  ( 3.530604339932687600, 0.0000000000000000000, 4.754973767308681300E-016 ) ) ;
#68 = VERTEX_POINT ( 'NONE', #223 ) ;
#69 = EDGE_CURVE ( 'NONE', #215, #292, #42, .T. ) ;
#70 = FACE_OUTER_BOUND ( 'NONE', #285, .T. ) ;
#71 = CIRCLE ( 'NONE', #142, 5.396000000000000800 ) ;
#72 = AXIS2_PLACEMENT_3D ( 'NONE', #167, #31, #342 ) ;
#73 = ORIENTED_EDGE ( 'NONE', *, *, #111, .T. ) ;
#74 = EDGE_LOOP ( 'NONE', ( #150, #153, #97 ) ) ;
#75 = CARTESIAN_POINT ( 'NONE',  ( 5.475736157168956500, 3.857637417314165200E-016, -3.150000000000002600 ) ) ;
#76 = DIRECTION ( 'NONE',  ( 0.0000000000000000000, 0.0000000000000000000, 1.000000000000000000 ) ) ;
#77 = PRESENTATION_STYLE_ASSIGNMENT (( #25 ) ) ;
#78 =( LENGTH_UNIT ( ) NAMED_UNIT ( * ) SI_UNIT ( .MILLI., .METRE. ) );
#79 = EDGE_CURVE ( 'NONE', #45, #308, #210, .T. ) ;
#80 = ORIENTED_EDGE ( 'NONE', *, *, #54, .F. ) ;
#81 = FACE_OUTER_BOUND ( 'NONE', #173, .T. ) ;
#82 =( LENGTH_UNIT ( ) NAMED_UNIT ( * ) SI_UNIT ( .MILLI., .METRE. ) );
#83 = AXIS2_PLACEMENT_3D ( 'NONE', #7, #273, #89 ) ;
#84 = EDGE_LOOP ( 'NONE', ( #314, #307, #119 ) ) ;
#85 = SURFACE_STYLE_FILL_AREA ( #59 ) ;
#86 = FILL_AREA_STYLE_COLOUR ( '', #196 ) ;
#87 = ORIENTED_EDGE ( 'NONE', *, *, #38, .T. ) ;
#88 = CIRCLE ( 'NONE', #233, 5.395999999999999900 ) ;
#89 = DIRECTION ( 'NONE',  ( 0.0000000000000000000, 0.0000000000000000000, 1.000000000000000000 ) ) ;
#90 = UNCERTAINTY_MEASURE_WITH_UNIT (LENGTH_MEASURE( 1.000000000000000100E-005 ), #78, 'distance_accuracy_value', 'NONE');
#91 = AXIS2_PLACEMENT_3D ( 'NONE', #32, #29, #260 ) ;
#92 = DIRECTION ( 'NONE',  ( -1.000000000000000000, -0.0000000000000000000, -0.0000000000000000000 ) ) ;
#93 = DIRECTION ( 'NONE',  ( -1.000000000000000000, -0.0000000000000000000, -0.0000000000000000000 ) ) ;
#94 = COLOUR_RGB ( '',1.000000000000000000, 1.000000000000000000, 1.000000000000000000 ) ;
#95 = ADVANCED_FACE ( 'NONE', ( #234 ), #63, .T. ) ;
#96 = CARTESIAN_POINT ( 'NONE',  ( 11.71460433993268400, 0.0000000000000000000, -2.562809348022867400E-017 ) ) ;
#97 = ORIENTED_EDGE ( 'NONE', *, *, #79, .F. ) ;
#98 = CARTESIAN_POINT ( 'NONE',  ( -6.780395660067313200, 0.0000000000000000000, 0.0000000000000000000 ) ) ;
#99 = CARTESIAN_POINT ( 'NONE',  ( 1.094604339932686600, 0.0000000000000000000, -3.388131789017201400E-018 ) ) ;
#100 = CARTESIAN_POINT ( 'NONE',  ( -0.5519199926577972300, 0.0000000000000000000, 0.0000000000000000000 ) ) ;
#101 = EDGE_CURVE ( 'NONE', #325, #28, #211, .T. ) ;
#102 = DIRECTION ( 'NONE',  ( 0.0000000000000000000, -1.000000000000000000, 0.0000000000000000000 ) ) ;
#103 = CIRCLE ( 'NONE', #179, 3.150000000000001700 ) ;
#104 = SURFACE_STYLE_FILL_AREA ( #128 ) ;
#105 = EDGE_LOOP ( 'NONE', ( #255, #112, #181 ) ) ;
#106 = AXIS2_PLACEMENT_3D ( 'NONE', #100, #183, #337 ) ;
#107 = DIRECTION ( 'NONE',  ( 0.0000000000000000000, 0.0000000000000000000, 1.000000000000000000 ) ) ;
#108 = VERTEX_POINT ( 'NONE', #75 ) ;
#109 = SURFACE_SIDE_STYLE ('',( #104 ) ) ;
#110 =( NAMED_UNIT ( * ) SI_UNIT ( $, .STERADIAN. ) SOLID_ANGLE_UNIT ( ) );
#111 = EDGE_CURVE ( 'NONE', #325, #203, #12, .T. ) ;
#112 = ORIENTED_EDGE ( 'NONE', *, *, #186, .T. ) ;
#113 = DIRECTION ( 'NONE',  ( -1.000000000000000000, -0.0000000000000000000, -0.0000000000000000000 ) ) ;
#114 = ORIENTED_EDGE ( 'NONE', *, *, #266, .T. ) ;
#115 = EDGE_CURVE ( 'NONE', #215, #204, #344, .T. ) ;
#116 = SPHERICAL_SURFACE ( 'NONE', #323, 14.75099999999999900 ) ;
#117 =( NAMED_UNIT ( * ) PLANE_ANGLE_UNIT ( ) SI_UNIT ( $, .RADIAN. ) );
#118 = AXIS2_PLACEMENT_3D ( 'NONE', #258, #76, #56 ) ;
#119 = ORIENTED_EDGE ( 'NONE', *, *, #166, .T. ) ;
#120 = ADVANCED_FACE ( 'NONE', ( #19 ), #271, .T. ) ;
#121 = DIRECTION ( 'NONE',  ( 0.0000000000000000000, 1.000000000000000000, 0.0000000000000000000 ) ) ;
#122 =( NAMED_UNIT ( * ) PLANE_ANGLE_UNIT ( ) SI_UNIT ( $, .RADIAN. ) );
#123 = ORIENTED_EDGE ( 'NONE', *, *, #79, .T. ) ;
#124 = CARTESIAN_POINT ( 'NONE',  ( -0.5519199926577972300, 0.0000000000000000000, 0.0000000000000000000 ) ) ;
#125 = CYLINDRICAL_SURFACE ( 'NONE', #189, 3.150000000000000800 ) ;
#126 = AXIS2_PLACEMENT_3D ( 'NONE', #305, #310, #248 ) ;
#127 = ORIENTED_EDGE ( 'NONE', *, *, #54, .T. ) ;
#128 = FILL_AREA_STYLE ('',( #267 ) ) ;
#129 = DIRECTION ( 'NONE',  ( 0.0000000000000000000, 0.0000000000000000000, 1.000000000000000000 ) ) ;
#130 = PRESENTATION_LAYER_ASSIGNMENT (  '', '', ( #311 ) ) ;
#131 =( LENGTH_UNIT ( ) NAMED_UNIT ( * ) SI_UNIT ( .MILLI., .METRE. ) );
#132 = PRODUCT_DEFINITION_CONTEXT ( 'detailed design', #46, 'design' ) ;
#133 = DIRECTION ( 'NONE',  ( 0.0000000000000000000, -1.000000000000000000, 0.0000000000000000000 ) ) ;
#134 = PRODUCT_DEFINITION ( 'Î´Öª', '', #316, #132 ) ;
#135 = CARTESIAN_POINT ( 'NONE',  ( 4.161104753648194400, 3.857637417314162200E-016, -3.149999999999999000 ) ) ;
#136 = AXIS2_PLACEMENT_3D ( 'NONE', #99, #335, #190 ) ;
#137 = DIRECTION ( 'NONE',  ( -0.0000000000000000000, 1.000000000000000000, 1.224646799147353200E-016 ) ) ;
#138 = FACE_OUTER_BOUND ( 'NONE', #238, .T. ) ;
#139 = DIRECTION ( 'NONE',  ( 0.0000000000000000000, 0.0000000000000000000, 1.000000000000000000 ) ) ;
#140 = ORIENTED_EDGE ( 'NONE', *, *, #159, .F. ) ;
#141 = DIRECTION ( 'NONE',  ( 0.0000000000000000000, 0.0000000000000000000, 1.000000000000000000 ) ) ;
#142 = AXIS2_PLACEMENT_3D ( 'NONE', #50, #102, #306 ) ;
#143 = ADVANCED_FACE ( 'NONE', ( #170 ), #227, .F. ) ;
#144 = CIRCLE ( 'NONE', #264, 3.150000000000000400 ) ;
#145 = CIRCLE ( 'NONE', #72, 14.75099999999999900 ) ;
#146 = CIRCLE ( 'NONE', #277, 3.149999999999999900 ) ;
#147 = FILL_AREA_STYLE_COLOUR ( '', #94 ) ;
#148 = AXIS2_PLACEMENT_3D ( 'NONE', #35, #330, #169 ) ;
#149 = CLOSED_SHELL ( 'NONE', ( #120, #326, #245, #95, #218, #193 ) ) ;
#150 = ORIENTED_EDGE ( 'NONE', *, *, #200, .F. ) ;
#151 = CARTESIAN_POINT ( 'NONE',  ( 4.161104753648194400, 0.0000000000000000000, 0.0000000000000000000 ) ) ;
#152 = SHAPE_DEFINITION_REPRESENTATION ( #30, #313 ) ;
#153 = ORIENTED_EDGE ( 'NONE', *, *, #16, .T. ) ;
#154 = EDGE_CURVE ( 'NONE', #68, #28, #145, .T. ) ;
#155 = FACE_OUTER_BOUND ( 'NONE', #157, .T. ) ;
#156 = FACE_OUTER_BOUND ( 'NONE', #105, .T. ) ;
#157 = EDGE_LOOP ( 'NONE', ( #164, #34, #317 ) ) ;
#158 = PRODUCT_RELATED_PRODUCT_CATEGORY ( 'part', '', ( #195 ) ) ;
#159 = EDGE_CURVE ( 'NONE', #28, #108, #235, .T. ) ;
#160 =( NAMED_UNIT ( * ) SI_UNIT ( $, .STERADIAN. ) SOLID_ANGLE_UNIT ( ) );
#161 = VECTOR ( 'NONE', #93, 1000.000000000000000 ) ;
#162 = AXIS2_PLACEMENT_3D ( 'NONE', #221, #60, #309 ) ;
#163 = VECTOR ( 'NONE', #265, 1000.000000000000000 ) ;
#164 = ORIENTED_EDGE ( 'NONE', *, *, #16, .F. ) ;
#165 = ORIENTED_EDGE ( 'NONE', *, *, #111, .F. ) ;
#166 = EDGE_CURVE ( 'NONE', #203, #108, #103, .T. ) ;
#167 = CARTESIAN_POINT ( 'NONE',  ( -6.780395660067313200, 0.0000000000000000000, 0.0000000000000000000 ) ) ;
#168 = SPHERICAL_SURFACE ( 'NONE', #301, 14.75099999999999900 ) ;
#169 = DIRECTION ( 'NONE',  ( 0.0000000000000000000, -1.224646799147353200E-016, 1.000000000000000000 ) ) ;
#170 = FACE_OUTER_BOUND ( 'NONE', #341, .T. ) ;
#171 = MECHANICAL_DESIGN_GEOMETRIC_PRESENTATION_REPRESENTATION (  '', ( #43 ), #320 ) ;
#172 = DIRECTION ( 'NONE',  ( 0.0000000000000000000, 0.0000000000000000000, 1.000000000000000000 ) ) ;
#173 = EDGE_LOOP ( 'NONE', ( #80, #246, #281, #213 ) ) ;
#174 = EDGE_LOOP ( 'NONE', ( #250, #53, #321 ) ) ;
#175 = DIRECTION ( 'NONE',  ( -1.000000000000000000, -0.0000000000000000000, -0.0000000000000000000 ) ) ;
#176 = LINE ( 'NONE', #329, #188 ) ;
#177 = DIRECTION ( 'NONE',  ( 0.0000000000000000000, 0.0000000000000000000, 1.000000000000000000 ) ) ;
#178 = CARTESIAN_POINT ( 'NONE',  ( 7.630346895401506100, 0.0000000000000000000, 0.0000000000000000000 ) ) ;
#179 = AXIS2_PLACEMENT_3D ( 'NONE', #331, #282, #172 ) ;
#180 = MECHANICAL_DESIGN_GEOMETRIC_PRESENTATION_REPRESENTATION (  '', ( #311 ), #209 ) ;
#181 = ORIENTED_EDGE ( 'NONE', *, *, #266, .F. ) ;
#182 = AXIS2_PLACEMENT_3D ( 'NONE', #212, #51, #239 ) ;
#183 = DIRECTION ( 'NONE',  ( -1.000000000000000000, -0.0000000000000000000, -0.0000000000000000000 ) ) ;
#184 = CLOSED_SHELL ( 'NONE', ( #270, #332, #143, #27, #4, #302 ) ) ;
#185 = ORIENTED_EDGE ( 'NONE', *, *, #101, .T. ) ;
#186 = EDGE_CURVE ( 'NONE', #68, #325, #312, .T. ) ;
#187 = CARTESIAN_POINT ( 'NONE',  ( 5.475736157168960000, 0.0000000000000000000, 0.0000000000000000000 ) ) ;
#188 = VECTOR ( 'NONE', #92, 1000.000000000000000 ) ;
#189 = AXIS2_PLACEMENT_3D ( 'NONE', #124, #242, #139 ) ;
#190 = DIRECTION ( 'NONE',  ( 0.0000000000000000000, -1.224646799147353200E-016, 1.000000000000000000 ) ) ;
#191 = AXIS2_PLACEMENT_3D ( 'NONE', #96, #121, #55 ) ;
#192 = CARTESIAN_POINT ( 'NONE',  ( -0.8160621761658039000, 0.0000000000000000000, 0.0000000000000000000 ) ) ;
#193 = ADVANCED_FACE ( 'NONE', ( #155 ), #290, .T. ) ;
#194 = DIRECTION ( 'NONE',  ( 0.0000000000000000000, 0.0000000000000000000, 1.000000000000000000 ) ) ;
#195 = PRODUCT ( '145009', '145009', '', ( #216 ) ) ;
#196 = COLOUR_RGB ( '',1.000000000000000000, 1.000000000000000000, 1.000000000000000000 ) ;
#197 = CARTESIAN_POINT ( 'NONE',  ( 11.71460433993268400, 0.0000000000000000000, -2.562809348022867400E-017 ) ) ;
#198 = CARTESIAN_POINT ( 'NONE',  ( 7.630346895401506100, 0.0000000000000000000, 3.150000000000000400 ) ) ;
#199 = DIRECTION ( 'NONE',  ( -1.000000000000000000, -0.0000000000000000000, -0.0000000000000000000 ) ) ;
#200 = EDGE_CURVE ( 'NONE', #24, #45, #71, .T. ) ;
#201 = FACE_OUTER_BOUND ( 'NONE', #174, .T. ) ;
#202 = AXIS2_PLACEMENT_3D ( 'NONE', #197, #318, #315 ) ;
#203 = VERTEX_POINT ( 'NONE', #263 ) ;
#204 = VERTEX_POINT ( 'NONE', #236 ) ;
#205 = APPLICATION_PROTOCOL_DEFINITION ( 'draft international standard', 'automotive_design', 1998, #46 ) ;
#206 = DIRECTION ( 'NONE',  ( 0.0000000000000000000, 1.000000000000000000, 0.0000000000000000000 ) ) ;
#207 = ORIENTED_EDGE ( 'NONE', *, *, #159, .T. ) ;
#208 = AXIS2_PLACEMENT_3D ( 'NONE', #192, #347, #177 ) ;
#209 =( GEOMETRIC_REPRESENTATION_CONTEXT ( 3 ) GLOBAL_UNCERTAINTY_ASSIGNED_CONTEXT ( ( #18 ) ) GLOBAL_UNIT_ASSIGNED_CONTEXT ( ( #82, #269, #299 ) ) REPRESENTATION_CONTEXT ( 'NONE', 'WORKASPACE' ) );
#210 = CIRCLE ( 'NONE', #346, 3.149999999999999900 ) ;
#211 = CIRCLE ( 'NONE', #237, 3.150000000000000400 ) ;
#212 = CARTESIAN_POINT ( 'NONE',  ( 4.161104753648194400, 0.0000000000000000000, 0.0000000000000000000 ) ) ;
#213 = ORIENTED_EDGE ( 'NONE', *, *, #115, .F. ) ;
#214 = CARTESIAN_POINT ( 'NONE',  ( 1.094604339932686600, 0.0000000000000000000, -3.388131789017201400E-018 ) ) ;
#215 = VERTEX_POINT ( 'NONE', #135 ) ;
#216 = PRODUCT_CONTEXT ( 'NONE', #66, 'mechanical' ) ;
#217 = SURFACE_SIDE_STYLE ('',( #85 ) ) ;
#218 = ADVANCED_FACE ( 'NONE', ( #81 ), #5, .T. ) ;
#219 = VECTOR ( 'NONE', #244, 1000.000000000000000 ) ;
#220 = CYLINDRICAL_SURFACE ( 'NONE', #106, 3.150000000000000800 ) ;
#221 = CARTESIAN_POINT ( 'NONE',  ( -6.780395660067313200, 0.0000000000000000000, 0.0000000000000000000 ) ) ;
#222 = ORIENTED_EDGE ( 'NONE', *, *, #154, .T. ) ;
#223 = CARTESIAN_POINT ( 'NONE',  ( 7.970604339932687100, 0.0000000000000000000, 9.032382467111304000E-016 ) ) ;
#224 =( LENGTH_UNIT ( ) NAMED_UNIT ( * ) SI_UNIT ( .MILLI., .METRE. ) );
#225 = DIRECTION ( 'NONE',  ( 0.0000000000000000000, 0.0000000000000000000, 1.000000000000000000 ) ) ;
#226 = EDGE_LOOP ( 'NONE', ( #297, #15, #304 ) ) ;
#227 = SPHERICAL_SURFACE ( 'NONE', #40, 5.395999999999999900 ) ;
#228 = MECHANICAL_DESIGN_GEOMETRIC_PRESENTATION_REPRESENTATION (  '', ( #275 ), #247 ) ;
#229 = ORIENTED_EDGE ( 'NONE', *, *, #343, .F. ) ;
#230 = ORIENTED_EDGE ( 'NONE', *, *, #64, .T. ) ;
#231 = CIRCLE ( 'NONE', #91, 3.150000000000001700 ) ;
#232 = CARTESIAN_POINT ( 'NONE',  ( -0.5519199926577972300, 3.857637417314163700E-016, -3.150000000000000800 ) ) ;
#233 = AXIS2_PLACEMENT_3D ( 'NONE', #327, #137, #294 ) ;
#234 = FACE_OUTER_BOUND ( 'NONE', #226, .T. ) ;
#235 = LINE ( 'NONE', #232, #219 ) ;
#236 = CARTESIAN_POINT ( 'NONE',  ( 4.161104753648194400, 0.0000000000000000000, 3.149999999999999000 ) ) ;
#237 = AXIS2_PLACEMENT_3D ( 'NONE', #178, #324, #48 ) ;
#238 = EDGE_LOOP ( 'NONE', ( #123, #127, #1, #8 ) ) ;
#239 = DIRECTION ( 'NONE',  ( 0.0000000000000000000, 0.0000000000000000000, 1.000000000000000000 ) ) ;
#240 = CARTESIAN_POINT ( 'NONE',  ( 11.71460433993268400, 0.0000000000000000000, -2.562809348022867400E-017 ) ) ;
#241 = ORIENTED_EDGE ( 'NONE', *, *, #166, .F. ) ;
#242 = DIRECTION ( 'NONE',  ( -1.000000000000000000, -0.0000000000000000000, -0.0000000000000000000 ) ) ;
#243 = UNCERTAINTY_MEASURE_WITH_UNIT (LENGTH_MEASURE( 1.000000000000000100E-005 ), #131, 'distance_accuracy_value', 'NONE');
#244 = DIRECTION ( 'NONE',  ( -1.000000000000000000, -0.0000000000000000000, -0.0000000000000000000 ) ) ;
#245 = ADVANCED_FACE ( 'NONE', ( #201 ), #279, .T. ) ;
#246 = ORIENTED_EDGE ( 'NONE', *, *, #254, .T. ) ;
#247 =( GEOMETRIC_REPRESENTATION_CONTEXT ( 3 ) GLOBAL_UNCERTAINTY_ASSIGNED_CONTEXT ( ( #90 ) ) GLOBAL_UNIT_ASSIGNED_CONTEXT ( ( #78, #117, #110 ) ) REPRESENTATION_CONTEXT ( 'NONE', 'WORKASPACE' ) );
#248 = DIRECTION ( 'NONE',  ( 0.0000000000000000000, 0.0000000000000000000, 1.000000000000000000 ) ) ;
#249 = CARTESIAN_POINT ( 'NONE',  ( 5.475736157168960000, 0.0000000000000000000, 0.0000000000000000000 ) ) ;
#250 = ORIENTED_EDGE ( 'NONE', *, *, #303, .T. ) ;
#251 = DIRECTION ( 'NONE',  ( 0.0000000000000000000, 0.0000000000000000000, 1.000000000000000000 ) ) ;
#252 = DIRECTION ( 'NONE',  ( 0.0000000000000000000, 1.000000000000000000, 0.0000000000000000000 ) ) ;
#253 = CARTESIAN_POINT ( 'NONE',  ( 1.094604339932686600, 0.0000000000000000000, -3.388131789017201400E-018 ) ) ;
#254 = EDGE_CURVE ( 'NONE', #308, #45, #146, .T. ) ;
#255 = ORIENTED_EDGE ( 'NONE', *, *, #154, .F. ) ;
#256 = DIRECTION ( 'NONE',  ( 0.0000000000000000000, 1.000000000000000000, 0.0000000000000000000 ) ) ;
#257 = LINE ( 'NONE', #33, #161 ) ;
#258 = CARTESIAN_POINT ( 'NONE',  ( 0.0000000000000000000, 0.0000000000000000000, 0.0000000000000000000 ) ) ;
#259 = MANIFOLD_SOLID_BREP ( 'Ðý×ª1', #149 ) ;
#260 = DIRECTION ( 'NONE',  ( 0.0000000000000000000, 0.0000000000000000000, 1.000000000000000000 ) ) ;
#261 =( NAMED_UNIT ( * ) PLANE_ANGLE_UNIT ( ) SI_UNIT ( $, .RADIAN. ) );
#262 = PRESENTATION_LAYER_ASSIGNMENT (  '', '', ( #275 ) ) ;
#263 = CARTESIAN_POINT ( 'NONE',  ( 5.475736157168956500, 0.0000000000000000000, 3.150000000000002600 ) ) ;
#264 = AXIS2_PLACEMENT_3D ( 'NONE', #334, #39, #328 ) ;
#265 = DIRECTION ( 'NONE',  ( -1.000000000000000000, -0.0000000000000000000, -0.0000000000000000000 ) ) ;
#266 = EDGE_CURVE ( 'NONE', #28, #325, #144, .T. ) ;
#267 = FILL_AREA_STYLE_COLOUR ( '', #289 ) ;
#268 = CARTESIAN_POINT ( 'NONE',  ( 7.630346895401506100, 3.857637417314163200E-016, -3.150000000000000400 ) ) ;
#269 =( NAMED_UNIT ( * ) PLANE_ANGLE_UNIT ( ) SI_UNIT ( $, .RADIAN. ) );
#270 = ADVANCED_FACE ( 'NONE', ( #283 ), #168, .T. ) ;
#271 = SPHERICAL_SURFACE ( 'NONE', #333, 5.396000000000000800 ) ;
#272 = FACE_OUTER_BOUND ( 'NONE', #41, .T. ) ;
#273 = DIRECTION ( 'NONE',  ( -1.000000000000000000, -0.0000000000000000000, -0.0000000000000000000 ) ) ;
#274 = ORIENTED_EDGE ( 'NONE', *, *, #101, .F. ) ;
#275 = STYLED_ITEM ( 'NONE', ( #77 ), #259 ) ;
#276 = CIRCLE ( 'NONE', #21, 3.149999999999999900 ) ;
#277 = AXIS2_PLACEMENT_3D ( 'NONE', #249, #199, #129 ) ;
#278 = UNCERTAINTY_MEASURE_WITH_UNIT (LENGTH_MEASURE( 1.000000000000000100E-005 ), #224, 'distance_accuracy_value', 'NONE');
#279 = SPHERICAL_SURFACE ( 'NONE', #191, 8.183999999999997500 ) ;
#280 = CYLINDRICAL_SURFACE ( 'NONE', #83, 3.149999999999999900 ) ;
#281 = ORIENTED_EDGE ( 'NONE', *, *, #49, .T. ) ;
#282 = DIRECTION ( 'NONE',  ( -1.000000000000000000, -0.0000000000000000000, -0.0000000000000000000 ) ) ;
#283 = FACE_OUTER_BOUND ( 'NONE', #340, .T. ) ;
#284 = SURFACE_STYLE_USAGE ( .BOTH. , #109 ) ;
#285 = EDGE_LOOP ( 'NONE', ( #185, #207, #241, #165 ) ) ;
#286 = FILL_AREA_STYLE ('',( #147 ) ) ;
#287 = PRESENTATION_STYLE_ASSIGNMENT (( #22 ) ) ;
#288 = DIRECTION ( 'NONE',  ( 0.0000000000000000000, 0.0000000000000000000, -1.000000000000000000 ) ) ;
#289 = COLOUR_RGB ( '',1.000000000000000000, 1.000000000000000000, 1.000000000000000000 ) ;
#290 = SPHERICAL_SURFACE ( 'NONE', #126, 5.396000000000000800 ) ;
#291 = DIRECTION ( 'NONE',  ( 0.0000000000000000000, 0.0000000000000000000, 1.000000000000000000 ) ) ;
#292 = VERTEX_POINT ( 'NONE', #67 ) ;
#293 = CARTESIAN_POINT ( 'NONE',  ( 1.094604339932686600, 0.0000000000000000000, -3.388131789017201400E-018 ) ) ;
#294 = DIRECTION ( 'NONE',  ( 0.0000000000000000000, -1.224646799147353200E-016, 1.000000000000000000 ) ) ;
#295 = AXIS2_PLACEMENT_3D ( 'NONE', #214, #296, #58 ) ;
#296 = DIRECTION ( 'NONE',  ( 0.0000000000000000000, 1.000000000000000000, 0.0000000000000000000 ) ) ;
#297 = ORIENTED_EDGE ( 'NONE', *, *, #69, .F. ) ;
#298 = DIRECTION ( 'NONE',  ( 0.0000000000000000000, 1.000000000000000000, 0.0000000000000000000 ) ) ;
#299 =( NAMED_UNIT ( * ) SI_UNIT ( $, .STERADIAN. ) SOLID_ANGLE_UNIT ( ) );
#300 = SURFACE_STYLE_FILL_AREA ( #286 ) ;
#301 = AXIS2_PLACEMENT_3D ( 'NONE', #98, #206, #194 ) ;
#302 = ADVANCED_FACE ( 'NONE', ( #156 ), #116, .T. ) ;
#303 = EDGE_CURVE ( 'NONE', #204, #215, #276, .T. ) ;
#304 = ORIENTED_EDGE ( 'NONE', *, *, #44, .T. ) ;
#305 = CARTESIAN_POINT ( 'NONE',  ( 1.094604339932686600, 0.0000000000000000000, -3.388131789017201400E-018 ) ) ;
#306 = DIRECTION ( 'NONE',  ( 0.0000000000000000000, 0.0000000000000000000, -1.000000000000000000 ) ) ;
#307 = ORIENTED_EDGE ( 'NONE', *, *, #343, .T. ) ;
#308 = VERTEX_POINT ( 'NONE', #36 ) ;
#309 = DIRECTION ( 'NONE',  ( 0.0000000000000000000, 0.0000000000000000000, -1.000000000000000000 ) ) ;
#310 = DIRECTION ( 'NONE',  ( 0.0000000000000000000, 1.000000000000000000, 0.0000000000000000000 ) ) ;
#311 = STYLED_ITEM ( 'NONE', ( #287 ), #37 ) ;
#312 = CIRCLE ( 'NONE', #162, 14.75099999999999900 ) ;
#313 = ADVANCED_BREP_SHAPE_REPRESENTATION ( '145009', ( #259, #37, #118 ), #6 ) ;
#314 = ORIENTED_EDGE ( 'NONE', *, *, #64, .F. ) ;
#315 = DIRECTION ( 'NONE',  ( 0.0000000000000000000, 0.0000000000000000000, -1.000000000000000000 ) ) ;
#316 = PRODUCT_DEFINITION_FORMATION_WITH_SPECIFIED_SOURCE ( 'ÈÎºÎ', '', #195, .NOT_KNOWN. ) ;
#317 = ORIENTED_EDGE ( 'NONE', *, *, #254, .F. ) ;
#318 = DIRECTION ( 'NONE',  ( 0.0000000000000000000, -1.000000000000000000, 0.0000000000000000000 ) ) ;
#319 = CIRCLE ( 'NONE', #339, 5.395999999999999900 ) ;
#320 =( GEOMETRIC_REPRESENTATION_CONTEXT ( 3 ) GLOBAL_UNCERTAINTY_ASSIGNED_CONTEXT ( ( #278 ) ) GLOBAL_UNIT_ASSIGNED_CONTEXT ( ( #224, #122, #9 ) ) REPRESENTATION_CONTEXT ( 'NONE', 'WORKASPACE' ) );
#321 = ORIENTED_EDGE ( 'NONE', *, *, #44, .F. ) ;
#322 = FACE_OUTER_BOUND ( 'NONE', #84, .T. ) ;
#323 = AXIS2_PLACEMENT_3D ( 'NONE', #47, #252, #225 ) ;
#324 = DIRECTION ( 'NONE',  ( -1.000000000000000000, -0.0000000000000000000, -0.0000000000000000000 ) ) ;
#325 = VERTEX_POINT ( 'NONE', #198 ) ;
#326 = ADVANCED_FACE ( 'NONE', ( #138 ), #280, .T. ) ;
#327 = CARTESIAN_POINT ( 'NONE',  ( 1.094604339932686600, 0.0000000000000000000, -3.388131789017201400E-018 ) ) ;
#328 = DIRECTION ( 'NONE',  ( 0.0000000000000000000, 0.0000000000000000000, 1.000000000000000000 ) ) ;
#329 = CARTESIAN_POINT ( 'NONE',  ( -0.8160621761658039000, 3.857637417314162700E-016, -3.149999999999999900 ) ) ;
#330 = DIRECTION ( 'NONE',  ( -0.0000000000000000000, 1.000000000000000000, 1.224646799147353200E-016 ) ) ;
#331 = CARTESIAN_POINT ( 'NONE',  ( 5.475736157168956500, 0.0000000000000000000, 0.0000000000000000000 ) ) ;
#332 = ADVANCED_FACE ( 'NONE', ( #70 ), #220, .T. ) ;
#333 = AXIS2_PLACEMENT_3D ( 'NONE', #26, #345, #107 ) ;
#334 = CARTESIAN_POINT ( 'NONE',  ( 7.630346895401506100, 0.0000000000000000000, 0.0000000000000000000 ) ) ;
#335 = DIRECTION ( 'NONE',  ( -0.0000000000000000000, 1.000000000000000000, 1.224646799147353200E-016 ) ) ;
#336 = CARTESIAN_POINT ( 'NONE',  ( 6.490604339932686700, 0.0000000000000000000, 3.270215746209387800E-016 ) ) ;
#337 = DIRECTION ( 'NONE',  ( 0.0000000000000000000, 0.0000000000000000000, 1.000000000000000000 ) ) ;
#338 = CARTESIAN_POINT ( 'NONE',  ( 6.490604339932686700, 0.0000000000000000000, 3.270215746209386800E-016 ) ) ;
#339 = AXIS2_PLACEMENT_3D ( 'NONE', #253, #133, #288 ) ;
#340 = EDGE_LOOP ( 'NONE', ( #65, #222, #274 ) ) ;
#341 = EDGE_LOOP ( 'NONE', ( #229, #230, #87 ) ) ;
#342 = DIRECTION ( 'NONE',  ( 0.0000000000000000000, -1.224646799147353200E-016, 1.000000000000000000 ) ) ;
#343 = EDGE_CURVE ( 'NONE', #13, #203, #319, .T. ) ;
#344 = CIRCLE ( 'NONE', #182, 3.149999999999999900 ) ;
#345 = DIRECTION ( 'NONE',  ( 0.0000000000000000000, 1.000000000000000000, 0.0000000000000000000 ) ) ;
#346 = AXIS2_PLACEMENT_3D ( 'NONE', #187, #113, #291 ) ;
#347 = DIRECTION ( 'NONE',  ( -1.000000000000000000, -0.0000000000000000000, -0.0000000000000000000 ) ) ;
ENDSEC;
END-ISO-10303-21;
