ISO-10303-21;
HEADER;
FILE_DESCRIPTION (( 'STEP AP214' ),
    '1' );
FILE_NAME ('145004.STEP',
    '2019-05-06T03:21:38',
    ( 'user' ),
    ( 'Î¢ÈíÖÐ¹ú' ),
    'SwSTEP 2.0',
    'SolidWorks 2016',
    '' );
FILE_SCHEMA (( 'AUTOMOTIVE_DESIGN' ));
ENDSEC;

DATA;
#1 = VERTEX_POINT ( 'NONE', #214 ) ;
#2 = CIRCLE ( 'NONE', #24, 4.299999999999999800 ) ;
#3 = FACE_OUTER_BOUND ( 'NONE', #25, .T. ) ;
#4 = AXIS2_PLACEMENT_3D ( 'NONE', #124, #282, #99 ) ;
#5 = FILL_AREA_STYLE_COLOUR ( '', #134 ) ;
#6 = DIRECTION ( 'NONE',  ( 0.0000000000000000000, 1.000000000000000000, 0.0000000000000000000 ) ) ;
#7 = ORIENTED_EDGE ( 'NONE', *, *, #275, .T. ) ;
#8 = DIRECTION ( 'NONE',  ( -1.000000000000000000, -0.0000000000000000000, -0.0000000000000000000 ) ) ;
#9 = CIRCLE ( 'NONE', #334, 2.500000000000001300 ) ;
#10 = ORIENTED_EDGE ( 'NONE', *, *, #240, .T. ) ;
#11 = AXIS2_PLACEMENT_3D ( 'NONE', #129, #321, #336 ) ;
#12 = LINE ( 'NONE', #67, #287 ) ;
#13 = CARTESIAN_POINT ( 'NONE',  ( -0.8160621761658039000, 0.0000000000000000000, 0.0000000000000000000 ) ) ;
#14 = DIRECTION ( 'NONE',  ( 0.0000000000000000000, 1.000000000000000000, 0.0000000000000000000 ) ) ;
#15 = CLOSED_SHELL ( 'NONE', ( #331, #173, #305, #196, #249, #91 ) ) ;
#16 = CIRCLE ( 'NONE', #303, 15.39999999999999700 ) ;
#17 = UNCERTAINTY_MEASURE_WITH_UNIT (LENGTH_MEASURE( 1.000000000000000100E-005 ), #20, 'distance_accuracy_value', 'NONE');
#18 = ORIENTED_EDGE ( 'NONE', *, *, #247, .F. ) ;
#19 = APPLICATION_PROTOCOL_DEFINITION ( 'draft international standard', 'automotive_design', 1998, #21 ) ;
#20 =( LENGTH_UNIT ( ) NAMED_UNIT ( * ) SI_UNIT ( .MILLI., .METRE. ) );
#21 = APPLICATION_CONTEXT ( 'automotive_design' ) ;
#22 = CIRCLE ( 'NONE', #339, 2.500000000000000000 ) ;
#23 = FILL_AREA_STYLE ('',( #105 ) ) ;
#24 = AXIS2_PLACEMENT_3D ( 'NONE', #125, #285, #100 ) ;
#25 = EDGE_LOOP ( 'NONE', ( #320, #40, #219, #151 ) ) ;
#26 = CARTESIAN_POINT ( 'NONE',  ( -0.8160621761658039000, 0.0000000000000000000, 0.0000000000000000000 ) ) ;
#27 = CARTESIAN_POINT ( 'NONE',  ( 3.676785469968338200, 0.0000000000000000000, 0.0000000000000000000 ) ) ;
#28 = AXIS2_PLACEMENT_3D ( 'NONE', #332, #43, #200 ) ;
#29 = DIRECTION ( 'NONE',  ( 0.0000000000000000000, 0.0000000000000000000, 1.000000000000000000 ) ) ;
#30 = CARTESIAN_POINT ( 'NONE',  ( 0.1782143330611579400, 0.0000000000000000000, -1.863472483959460700E-017 ) ) ;
#31 = CARTESIAN_POINT ( 'NONE',  ( 0.1782143330611579400, 0.0000000000000000000, -1.863472483959460700E-017 ) ) ;
#32 = ORIENTED_EDGE ( 'NONE', *, *, #247, .T. ) ;
#33 = DIRECTION ( 'NONE',  ( 0.0000000000000000000, 0.0000000000000000000, 1.000000000000000000 ) ) ;
#34 = VERTEX_POINT ( 'NONE', #197 ) ;
#35 = DIRECTION ( 'NONE',  ( 0.0000000000000000000, -1.000000000000000000, 0.0000000000000000000 ) ) ;
#36 = DIRECTION ( 'NONE',  ( -1.000000000000000000, -0.0000000000000000000, -0.0000000000000000000 ) ) ;
#37 = DIRECTION ( 'NONE',  ( 0.0000000000000000000, 1.000000000000000000, 0.0000000000000000000 ) ) ;
#38 = DIRECTION ( 'NONE',  ( 0.0000000000000000000, -1.224646799147353200E-016, 1.000000000000000000 ) ) ;
#39 = PRESENTATION_STYLE_ASSIGNMENT (( #235 ) ) ;
#40 = ORIENTED_EDGE ( 'NONE', *, *, #185, .T. ) ;
#41 = DIRECTION ( 'NONE',  ( 0.0000000000000000000, 0.0000000000000000000, 1.000000000000000000 ) ) ;
#42 = CARTESIAN_POINT ( 'NONE',  ( 6.173937415560391000, 0.0000000000000000000, 0.0000000000000000000 ) ) ;
#43 = DIRECTION ( 'NONE',  ( -0.0000000000000000000, 1.000000000000000000, 1.224646799147353200E-016 ) ) ;
#44 = DIRECTION ( 'NONE',  ( -1.000000000000000000, -0.0000000000000000000, -0.0000000000000000000 ) ) ;
#45 = AXIS2_PLACEMENT_3D ( 'NONE', #123, #176, #338 ) ;
#46 = ORIENTED_EDGE ( 'NONE', *, *, #223, .T. ) ;
#47 =( NAMED_UNIT ( * ) SI_UNIT ( $, .STERADIAN. ) SOLID_ANGLE_UNIT ( ) );
#48 = AXIS2_PLACEMENT_3D ( 'NONE', #13, #195, #253 ) ;
#49 = CIRCLE ( 'NONE', #231, 4.299999999999999800 ) ;
#50 =( LENGTH_UNIT ( ) NAMED_UNIT ( * ) SI_UNIT ( .MILLI., .METRE. ) );
#51 = SURFACE_STYLE_USAGE ( .BOTH. , #304 ) ;
#52 = VERTEX_POINT ( 'NONE', #246 ) ;
#53 = DIRECTION ( 'NONE',  ( 0.0000000000000000000, 0.0000000000000000000, -1.000000000000000000 ) ) ;
#54 = FILL_AREA_STYLE ('',( #5 ) ) ;
#55 = EDGE_CURVE ( 'NONE', #335, #259, #57, .T. ) ;
#56 = SURFACE_SIDE_STYLE ('',( #210 ) ) ;
#57 = CIRCLE ( 'NONE', #72, 2.499999999999998700 ) ;
#58 = EDGE_LOOP ( 'NONE', ( #216, #87, #278 ) ) ;
#59 =( GEOMETRIC_REPRESENTATION_CONTEXT ( 3 ) GLOBAL_UNCERTAINTY_ASSIGNED_CONTEXT ( ( #17 ) ) GLOBAL_UNIT_ASSIGNED_CONTEXT ( ( #20, #68, #47 ) ) REPRESENTATION_CONTEXT ( 'NONE', 'WORKASPACE' ) );
#60 = AXIS2_PLACEMENT_3D ( 'NONE', #61, #120, #233 ) ;
#61 = CARTESIAN_POINT ( 'NONE',  ( 0.1782143330611579400, 0.0000000000000000000, -1.863472483959460700E-017 ) ) ;
#62 = ADVANCED_FACE ( 'NONE', ( #319 ), #184, .T. ) ;
#63 = SPHERICAL_SURFACE ( 'NONE', #126, 4.299999999999999800 ) ;
#64 = EDGE_LOOP ( 'NONE', ( #145, #177, #325 ) ) ;
#65 = CARTESIAN_POINT ( 'NONE',  ( -0.8160621761658039000, 3.061616997868383100E-016, -2.500000000000000000 ) ) ;
#66 = DIRECTION ( 'NONE',  ( -1.000000000000000000, -0.0000000000000000000, -0.0000000000000000000 ) ) ;
#67 = CARTESIAN_POINT ( 'NONE',  ( -0.8160621761658039000, 0.0000000000000000000, 2.500000000000000000 ) ) ;
#68 =( NAMED_UNIT ( * ) PLANE_ANGLE_UNIT ( ) SI_UNIT ( $, .RADIAN. ) );
#69 = FACE_OUTER_BOUND ( 'NONE', #169, .T. ) ;
#70 = CIRCLE ( 'NONE', #11, 2.500000000000000000 ) ;
#71 = DIRECTION ( 'NONE',  ( 0.0000000000000000000, 0.0000000000000000000, 1.000000000000000000 ) ) ;
#72 = AXIS2_PLACEMENT_3D ( 'NONE', #217, #252, #141 ) ;
#73 = APPLICATION_CONTEXT ( 'automotive_design' ) ;
#74 = ORIENTED_EDGE ( 'NONE', *, *, #223, .F. ) ;
#75 =( NAMED_UNIT ( * ) PLANE_ANGLE_UNIT ( ) SI_UNIT ( $, .RADIAN. ) );
#76 = VECTOR ( 'NONE', #201, 1000.000000000000000 ) ;
#77 = SPHERICAL_SURFACE ( 'NONE', #318, 6.599999999999999600 ) ;
#78 = ORIENTED_EDGE ( 'NONE', *, *, #202, .T. ) ;
#79 = AXIS2_PLACEMENT_3D ( 'NONE', #266, #292, #344 ) ;
#80 = ADVANCED_BREP_SHAPE_REPRESENTATION ( '145004', ( #298, #146, #139 ), #59 ) ;
#81 = DIRECTION ( 'NONE',  ( -1.000000000000000000, -0.0000000000000000000, -0.0000000000000000000 ) ) ;
#82 = CIRCLE ( 'NONE', #79, 4.299999999999999800 ) ;
#83 = ORIENTED_EDGE ( 'NONE', *, *, #275, .F. ) ;
#84 = SPHERICAL_SURFACE ( 'NONE', #255, 4.299999999999999800 ) ;
#85 = DIRECTION ( 'NONE',  ( 0.0000000000000000000, 1.000000000000000000, 0.0000000000000000000 ) ) ;
#86 = VERTEX_POINT ( 'NONE', #193 ) ;
#87 = ORIENTED_EDGE ( 'NONE', *, *, #346, .T. ) ;
#88 = CARTESIAN_POINT ( 'NONE',  ( -0.5519199926577972300, 3.061616997868383100E-016, -2.500000000000000000 ) ) ;
#89 = DIRECTION ( 'NONE',  ( -1.000000000000000000, -0.0000000000000000000, -0.0000000000000000000 ) ) ;
#90 = DIRECTION ( 'NONE',  ( 0.0000000000000000000, 0.0000000000000000000, -1.000000000000000000 ) ) ;
#91 = ADVANCED_FACE ( 'NONE', ( #161 ), #63, .T. ) ;
#92 = STYLED_ITEM ( 'NONE', ( #342 ), #146 ) ;
#93 = ORIENTED_EDGE ( 'NONE', *, *, #175, .T. ) ;
#94 = CIRCLE ( 'NONE', #271, 2.500000000000000000 ) ;
#95 = CARTESIAN_POINT ( 'NONE',  ( 3.676785469968338200, 3.061616997868383100E-016, -2.500000000000000000 ) ) ;
#96 = STYLED_ITEM ( 'NONE', ( #39 ), #80 ) ;
#97 = ORIENTED_EDGE ( 'NONE', *, *, #180, .F. ) ;
#98 = ORIENTED_EDGE ( 'NONE', *, *, #55, .F. ) ;
#99 = DIRECTION ( 'NONE',  ( 0.0000000000000000000, 0.0000000000000000000, 1.000000000000000000 ) ) ;
#100 = DIRECTION ( 'NONE',  ( 0.0000000000000000000, 0.0000000000000000000, -1.000000000000000000 ) ) ;
#101 = STYLED_ITEM ( 'NONE', ( #147 ), #298 ) ;
#102 = DIRECTION ( 'NONE',  ( -0.0000000000000000000, 1.000000000000000000, 1.224646799147353200E-016 ) ) ;
#103 = CARTESIAN_POINT ( 'NONE',  ( 0.0000000000000000000, 0.0000000000000000000, 0.0000000000000000000 ) ) ;
#104 = ORIENTED_EDGE ( 'NONE', *, *, #346, .F. ) ;
#105 = FILL_AREA_STYLE_COLOUR ( '', #340 ) ;
#106 = DIRECTION ( 'NONE',  ( 0.0000000000000000000, 0.0000000000000000000, 1.000000000000000000 ) ) ;
#107 = ORIENTED_EDGE ( 'NONE', *, *, #294, .T. ) ;
#108 = CARTESIAN_POINT ( 'NONE',  ( 8.578214333061158200, 0.0000000000000000000, -9.243763471008167800E-018 ) ) ;
#109 = ORIENTED_EDGE ( 'NONE', *, *, #221, .F. ) ;
#110 = AXIS2_PLACEMENT_3D ( 'NONE', #188, #225, #170 ) ;
#111 = DIRECTION ( 'NONE',  ( 0.0000000000000000000, 0.0000000000000000000, 1.000000000000000000 ) ) ;
#112 = DIRECTION ( 'NONE',  ( 0.0000000000000000000, 0.0000000000000000000, 1.000000000000000000 ) ) ;
#113 = FACE_OUTER_BOUND ( 'NONE', #343, .T. ) ;
#114 = PRESENTATION_LAYER_ASSIGNMENT (  '', '', ( #96 ) ) ;
#115 = PRODUCT_DEFINITION_SHAPE ( 'NONE', 'NONE',  #158 ) ;
#116 = PRESENTATION_LAYER_ASSIGNMENT (  '', '', ( #101 ) ) ;
#117 = CARTESIAN_POINT ( 'NONE',  ( -0.5519199926577972300, 0.0000000000000000000, 0.0000000000000000000 ) ) ;
#118 = VECTOR ( 'NONE', #89, 1000.000000000000000 ) ;
#119 = ADVANCED_FACE ( 'NONE', ( #113 ), #143, .T. ) ;
#120 = DIRECTION ( 'NONE',  ( 0.0000000000000000000, 1.000000000000000000, 0.0000000000000000000 ) ) ;
#121 = EDGE_CURVE ( 'NONE', #52, #1, #270, .T. ) ;
#122 = EDGE_LOOP ( 'NONE', ( #310, #46, #128 ) ) ;
#123 = CARTESIAN_POINT ( 'NONE',  ( 0.1782143330611579400, 0.0000000000000000000, -1.863472483959460700E-017 ) ) ;
#124 = CARTESIAN_POINT ( 'NONE',  ( 3.676785469968339100, 0.0000000000000000000, 0.0000000000000000000 ) ) ;
#125 = CARTESIAN_POINT ( 'NONE',  ( 0.1782143330611579400, 0.0000000000000000000, -1.863472483959460700E-017 ) ) ;
#126 = AXIS2_PLACEMENT_3D ( 'NONE', #276, #132, #187 ) ;
#127 = CARTESIAN_POINT ( 'NONE',  ( 6.378214333061155400, 0.0000000000000000000, 9.429780353434617100E-016 ) ) ;
#128 = ORIENTED_EDGE ( 'NONE', *, *, #311, .F. ) ;
#129 = CARTESIAN_POINT ( 'NONE',  ( 2.470023111430977200, 0.0000000000000000000, 0.0000000000000000000 ) ) ;
#130 = ORIENTED_EDGE ( 'NONE', *, *, #290, .F. ) ;
#131 = MECHANICAL_DESIGN_GEOMETRIC_PRESENTATION_REPRESENTATION (  '', ( #96 ), #155 ) ;
#132 = DIRECTION ( 'NONE',  ( 0.0000000000000000000, 1.000000000000000000, 0.0000000000000000000 ) ) ;
#133 = DIRECTION ( 'NONE',  ( -0.0000000000000000000, 1.000000000000000000, 1.224646799147353200E-016 ) ) ;
#134 = COLOUR_RGB ( '',1.000000000000000000, 1.000000000000000000, 1.000000000000000000 ) ;
#135 =( NAMED_UNIT ( * ) SI_UNIT ( $, .STERADIAN. ) SOLID_ANGLE_UNIT ( ) );
#136 = MECHANICAL_DESIGN_GEOMETRIC_PRESENTATION_REPRESENTATION (  '', ( #101 ), #279 ) ;
#137 = CARTESIAN_POINT ( 'NONE',  ( 6.173937415560391000, 3.061616997868384600E-016, -2.500000000000001300 ) ) ;
#138 = CYLINDRICAL_SURFACE ( 'NONE', #48, 2.500000000000000000 ) ;
#139 = AXIS2_PLACEMENT_3D ( 'NONE', #103, #286, #309 ) ;
#140 = ORIENTED_EDGE ( 'NONE', *, *, #326, .F. ) ;
#141 = DIRECTION ( 'NONE',  ( 0.0000000000000000000, 0.0000000000000000000, 1.000000000000000000 ) ) ;
#142 = FACE_OUTER_BOUND ( 'NONE', #289, .T. ) ;
#143 = CYLINDRICAL_SURFACE ( 'NONE', #164, 2.500000000000000000 ) ;
#144 = SHAPE_DEFINITION_REPRESENTATION ( #115, #80 ) ;
#145 = ORIENTED_EDGE ( 'NONE', *, *, #294, .F. ) ;
#146 = MANIFOLD_SOLID_BREP ( 'Ðý×ª3', #283 ) ;
#147 = PRESENTATION_STYLE_ASSIGNMENT (( #51 ) ) ;
#148 = ORIENTED_EDGE ( 'NONE', *, *, #121, .F. ) ;
#149 = AXIS2_PLACEMENT_3D ( 'NONE', #31, #35, #53 ) ;
#150 =( LENGTH_UNIT ( ) NAMED_UNIT ( * ) SI_UNIT ( .MILLI., .METRE. ) );
#151 = ORIENTED_EDGE ( 'NONE', *, *, #202, .F. ) ;
#152 = CIRCLE ( 'NONE', #308, 2.500000000000000000 ) ;
#153 = ADVANCED_FACE ( 'NONE', ( #329 ), #84, .F. ) ;
#154 = DIRECTION ( 'NONE',  ( 0.0000000000000000000, 0.0000000000000000000, 1.000000000000000000 ) ) ;
#155 =( GEOMETRIC_REPRESENTATION_CONTEXT ( 3 ) GLOBAL_UNCERTAINTY_ASSIGNED_CONTEXT ( ( #297 ) ) GLOBAL_UNIT_ASSIGNED_CONTEXT ( ( #50, #75, #238 ) ) REPRESENTATION_CONTEXT ( 'NONE', 'WORKASPACE' ) );
#156 = DIRECTION ( 'NONE',  ( 0.0000000000000000000, -1.000000000000000000, 0.0000000000000000000 ) ) ;
#157 = SPHERICAL_SURFACE ( 'NONE', #45, 4.299999999999999800 ) ;
#158 = PRODUCT_DEFINITION ( 'Î´Öª', '', #172, #192 ) ;
#159 = VERTEX_POINT ( 'NONE', #137 ) ;
#160 = LINE ( 'NONE', #65, #76 ) ;
#161 = FACE_OUTER_BOUND ( 'NONE', #64, .T. ) ;
#162 = CARTESIAN_POINT ( 'NONE',  ( -0.5519199926577972300, 0.0000000000000000000, 0.0000000000000000000 ) ) ;
#163 =( LENGTH_UNIT ( ) NAMED_UNIT ( * ) SI_UNIT ( .MILLI., .METRE. ) );
#164 = AXIS2_PLACEMENT_3D ( 'NONE', #117, #8, #33 ) ;
#165 = ORIENTED_EDGE ( 'NONE', *, *, #311, .T. ) ;
#166 = CARTESIAN_POINT ( 'NONE',  ( 2.470023111430976700, 0.0000000000000000000, 2.500000000000000400 ) ) ;
#167 = SURFACE_STYLE_FILL_AREA ( #181 ) ;
#168 = CARTESIAN_POINT ( 'NONE',  ( 3.676785469968338200, 0.0000000000000000000, 0.0000000000000000000 ) ) ;
#169 = EDGE_LOOP ( 'NONE', ( #7, #189, #234 ) ) ;
#170 = DIRECTION ( 'NONE',  ( 0.0000000000000000000, 0.0000000000000000000, 1.000000000000000000 ) ) ;
#171 = SPHERICAL_SURFACE ( 'NONE', #237, 15.39999999999999700 ) ;
#172 = PRODUCT_DEFINITION_FORMATION_WITH_SPECIFIED_SOURCE ( 'ÈÎºÎ', '', #328, .NOT_KNOWN. ) ;
#173 = ADVANCED_FACE ( 'NONE', ( #142 ), #254, .T. ) ;
#174 =( NAMED_UNIT ( * ) PLANE_ANGLE_UNIT ( ) SI_UNIT ( $, .RADIAN. ) );
#175 = EDGE_CURVE ( 'NONE', #159, #259, #208, .T. ) ;
#176 = DIRECTION ( 'NONE',  ( 0.0000000000000000000, 1.000000000000000000, 0.0000000000000000000 ) ) ;
#177 = ORIENTED_EDGE ( 'NONE', *, *, #121, .T. ) ;
#178 = ADVANCED_FACE ( 'NONE', ( #236 ), #171, .T. ) ;
#179 = DIRECTION ( 'NONE',  ( -1.000000000000000000, -0.0000000000000000000, -0.0000000000000000000 ) ) ;
#180 = EDGE_CURVE ( 'NONE', #159, #86, #317, .T. ) ;
#181 = FILL_AREA_STYLE ('',( #315 ) ) ;
#182 = CYLINDRICAL_SURFACE ( 'NONE', #323, 2.500000000000000000 ) ;
#183 = PRESENTATION_LAYER_ASSIGNMENT (  '', '', ( #92 ) ) ;
#184 = SPHERICAL_SURFACE ( 'NONE', #110, 15.39999999999999700 ) ;
#185 = EDGE_CURVE ( 'NONE', #248, #1, #152, .T. ) ;
#186 = EDGE_LOOP ( 'NONE', ( #74, #10, #97 ) ) ;
#187 = DIRECTION ( 'NONE',  ( 0.0000000000000000000, 0.0000000000000000000, 1.000000000000000000 ) ) ;
#188 = CARTESIAN_POINT ( 'NONE',  ( -9.021785666938841400, 0.0000000000000000000, 0.0000000000000000000 ) ) ;
#189 = ORIENTED_EDGE ( 'NONE', *, *, #258, .T. ) ;
#190 = PRODUCT_RELATED_PRODUCT_CATEGORY ( 'part', '', ( #328 ) ) ;
#191 = DIRECTION ( 'NONE',  ( -1.000000000000000000, -0.0000000000000000000, -0.0000000000000000000 ) ) ;
#192 = PRODUCT_DEFINITION_CONTEXT ( 'detailed design', #73, 'design' ) ;
#193 = CARTESIAN_POINT ( 'NONE',  ( 6.173937415560391000, 0.0000000000000000000, 2.500000000000001300 ) ) ;
#194 = CARTESIAN_POINT ( 'NONE',  ( -9.021785666938841400, 0.0000000000000000000, 0.0000000000000000000 ) ) ;
#195 = DIRECTION ( 'NONE',  ( -1.000000000000000000, -0.0000000000000000000, -0.0000000000000000000 ) ) ;
#196 = ADVANCED_FACE ( 'NONE', ( #324 ), #280, .T. ) ;
#197 = CARTESIAN_POINT ( 'NONE',  ( 4.478214333061157700, 0.0000000000000000000, 2.446643369770863200E-016 ) ) ;
#198 = EDGE_CURVE ( 'NONE', #34, #259, #49, .T. ) ;
#199 = MECHANICAL_DESIGN_GEOMETRIC_PRESENTATION_REPRESENTATION (  '', ( #92 ), #218 ) ;
#200 = DIRECTION ( 'NONE',  ( 0.0000000000000000000, -1.224646799147353200E-016, 1.000000000000000000 ) ) ;
#201 = DIRECTION ( 'NONE',  ( -1.000000000000000000, -0.0000000000000000000, -0.0000000000000000000 ) ) ;
#202 = EDGE_CURVE ( 'NONE', #224, #244, #94, .T. ) ;
#203 = ADVANCED_FACE ( 'NONE', ( #220 ), #182, .T. ) ;
#204 = FACE_OUTER_BOUND ( 'NONE', #242, .T. ) ;
#205 = APPLICATION_PROTOCOL_DEFINITION ( 'draft international standard', 'automotive_design', 1998, #73 ) ;
#206 = EDGE_LOOP ( 'NONE', ( #251, #78, #241 ) ) ;
#207 = COLOUR_RGB ( '',1.000000000000000000, 1.000000000000000000, 1.000000000000000000 ) ;
#208 = LINE ( 'NONE', #88, #118 ) ;
#209 = EDGE_CURVE ( 'NONE', #248, #224, #160, .T. ) ;
#210 = SURFACE_STYLE_FILL_AREA ( #54 ) ;
#211 = DIRECTION ( 'NONE',  ( 0.0000000000000000000, 0.0000000000000000000, 1.000000000000000000 ) ) ;
#212 = ORIENTED_EDGE ( 'NONE', *, *, #180, .T. ) ;
#213 = UNCERTAINTY_MEASURE_WITH_UNIT (LENGTH_MEASURE( 1.000000000000000100E-005 ), #163, 'distance_accuracy_value', 'NONE');
#214 = CARTESIAN_POINT ( 'NONE',  ( 3.676785469968338200, 0.0000000000000000000, 2.500000000000000000 ) ) ;
#215 = SPHERICAL_SURFACE ( 'NONE', #60, 4.299999999999999800 ) ;
#216 = ORIENTED_EDGE ( 'NONE', *, *, #198, .F. ) ;
#217 = CARTESIAN_POINT ( 'NONE',  ( 3.676785469968339100, 0.0000000000000000000, 0.0000000000000000000 ) ) ;
#218 =( GEOMETRIC_REPRESENTATION_CONTEXT ( 3 ) GLOBAL_UNCERTAINTY_ASSIGNED_CONTEXT ( ( #213 ) ) GLOBAL_UNIT_ASSIGNED_CONTEXT ( ( #163, #322, #135 ) ) REPRESENTATION_CONTEXT ( 'NONE', 'WORKASPACE' ) );
#219 = ORIENTED_EDGE ( 'NONE', *, *, #290, .T. ) ;
#220 = FACE_OUTER_BOUND ( 'NONE', #274, .T. ) ;
#221 = EDGE_CURVE ( 'NONE', #86, #335, #293, .T. ) ;
#222 = VERTEX_POINT ( 'NONE', #230 ) ;
#223 = EDGE_CURVE ( 'NONE', #301, #159, #16, .T. ) ;
#224 = VERTEX_POINT ( 'NONE', #261 ) ;
#225 = DIRECTION ( 'NONE',  ( 0.0000000000000000000, 1.000000000000000000, 0.0000000000000000000 ) ) ;
#226 = DIRECTION ( 'NONE',  ( -1.000000000000000000, -0.0000000000000000000, -0.0000000000000000000 ) ) ;
#227 = EDGE_LOOP ( 'NONE', ( #104, #268, #313 ) ) ;
#228 = CARTESIAN_POINT ( 'NONE',  ( 3.676785469968338700, 3.061616997868381200E-016, -2.499999999999998700 ) ) ;
#229 = DIRECTION ( 'NONE',  ( 0.0000000000000000000, 0.0000000000000000000, 1.000000000000000000 ) ) ;
#230 = CARTESIAN_POINT ( 'NONE',  ( 1.978214333061157500, 0.0000000000000000000, 3.948896802476183600E-016 ) ) ;
#231 = AXIS2_PLACEMENT_3D ( 'NONE', #345, #102, #333 ) ;
#232 = DIRECTION ( 'NONE',  ( 0.0000000000000000000, 0.0000000000000000000, 1.000000000000000000 ) ) ;
#233 = DIRECTION ( 'NONE',  ( 0.0000000000000000000, 0.0000000000000000000, 1.000000000000000000 ) ) ;
#234 = ORIENTED_EDGE ( 'NONE', *, *, #307, .F. ) ;
#235 = SURFACE_STYLE_USAGE ( .BOTH. , #341 ) ;
#236 = FACE_OUTER_BOUND ( 'NONE', #186, .T. ) ;
#237 = AXIS2_PLACEMENT_3D ( 'NONE', #269, #85, #106 ) ;
#238 =( NAMED_UNIT ( * ) SI_UNIT ( $, .STERADIAN. ) SOLID_ANGLE_UNIT ( ) );
#239 = PRODUCT_CONTEXT ( 'NONE', #21, 'mechanical' ) ;
#240 = EDGE_CURVE ( 'NONE', #301, #86, #264, .T. ) ;
#241 = ORIENTED_EDGE ( 'NONE', *, *, #307, .T. ) ;
#242 = EDGE_LOOP ( 'NONE', ( #148, #107, #18 ) ) ;
#243 = DIRECTION ( 'NONE',  ( 0.0000000000000000000, 0.0000000000000000000, 1.000000000000000000 ) ) ;
#244 = VERTEX_POINT ( 'NONE', #166 ) ;
#245 = SURFACE_STYLE_FILL_AREA ( #23 ) ;
#246 = CARTESIAN_POINT ( 'NONE',  ( 4.478214333061157700, 0.0000000000000000000, 2.446643369770863200E-016 ) ) ;
#247 = EDGE_CURVE ( 'NONE', #1, #248, #22, .T. ) ;
#248 = VERTEX_POINT ( 'NONE', #95 ) ;
#249 = ADVANCED_FACE ( 'NONE', ( #3 ), #138, .T. ) ;
#250 = AXIS2_PLACEMENT_3D ( 'NONE', #108, #37, #29 ) ;
#251 = ORIENTED_EDGE ( 'NONE', *, *, #258, .F. ) ;
#252 = DIRECTION ( 'NONE',  ( -1.000000000000000000, -0.0000000000000000000, -0.0000000000000000000 ) ) ;
#253 = DIRECTION ( 'NONE',  ( 0.0000000000000000000, 0.0000000000000000000, 1.000000000000000000 ) ) ;
#254 = CYLINDRICAL_SURFACE ( 'NONE', #291, 2.500000000000000000 ) ;
#255 = AXIS2_PLACEMENT_3D ( 'NONE', #30, #6, #243 ) ;
#256 = CARTESIAN_POINT ( 'NONE',  ( -0.5519199926577972300, 0.0000000000000000000, 2.500000000000000000 ) ) ;
#257 = DIRECTION ( 'NONE',  ( -1.000000000000000000, -0.0000000000000000000, -0.0000000000000000000 ) ) ;
#258 = EDGE_CURVE ( 'NONE', #224, #222, #299, .T. ) ;
#259 = VERTEX_POINT ( 'NONE', #228 ) ;
#260 = CARTESIAN_POINT ( 'NONE',  ( 6.173937415560391000, 0.0000000000000000000, 0.0000000000000000000 ) ) ;
#261 = CARTESIAN_POINT ( 'NONE',  ( 2.470023111430976700, 3.061616997868384100E-016, -2.500000000000000400 ) ) ;
#262 = ORIENTED_EDGE ( 'NONE', *, *, #221, .T. ) ;
#263 = DIRECTION ( 'NONE',  ( -1.000000000000000000, -0.0000000000000000000, -0.0000000000000000000 ) ) ;
#264 = CIRCLE ( 'NONE', #284, 15.39999999999999700 ) ;
#265 = FACE_OUTER_BOUND ( 'NONE', #227, .T. ) ;
#266 = CARTESIAN_POINT ( 'NONE',  ( 0.1782143330611579400, 0.0000000000000000000, -1.863472483959460700E-017 ) ) ;
#267 = ADVANCED_FACE ( 'NONE', ( #265 ), #215, .F. ) ;
#268 = ORIENTED_EDGE ( 'NONE', *, *, #198, .T. ) ;
#269 = CARTESIAN_POINT ( 'NONE',  ( -9.021785666938841400, 0.0000000000000000000, 0.0000000000000000000 ) ) ;
#270 = CIRCLE ( 'NONE', #149, 4.299999999999999800 ) ;
#271 = AXIS2_PLACEMENT_3D ( 'NONE', #316, #263, #71 ) ;
#272 = CIRCLE ( 'NONE', #300, 6.599999999999999600 ) ;
#273 = AXIS2_PLACEMENT_3D ( 'NONE', #42, #36, #112 ) ;
#274 = EDGE_LOOP ( 'NONE', ( #165, #93, #98, #109 ) ) ;
#275 = EDGE_CURVE ( 'NONE', #244, #224, #70, .T. ) ;
#276 = CARTESIAN_POINT ( 'NONE',  ( 0.1782143330611579400, 0.0000000000000000000, -1.863472483959460700E-017 ) ) ;
#277 = DIRECTION ( 'NONE',  ( 0.0000000000000000000, -1.000000000000000000, 0.0000000000000000000 ) ) ;
#278 = ORIENTED_EDGE ( 'NONE', *, *, #55, .T. ) ;
#279 =( GEOMETRIC_REPRESENTATION_CONTEXT ( 3 ) GLOBAL_UNCERTAINTY_ASSIGNED_CONTEXT ( ( #327 ) ) GLOBAL_UNIT_ASSIGNED_CONTEXT ( ( #150, #174, #330 ) ) REPRESENTATION_CONTEXT ( 'NONE', 'WORKASPACE' ) );
#280 = SPHERICAL_SURFACE ( 'NONE', #250, 6.599999999999999600 ) ;
#281 = CARTESIAN_POINT ( 'NONE',  ( 8.578214333061158200, 0.0000000000000000000, -9.243763471008167800E-018 ) ) ;
#282 = DIRECTION ( 'NONE',  ( -1.000000000000000000, -0.0000000000000000000, -0.0000000000000000000 ) ) ;
#283 = CLOSED_SHELL ( 'NONE', ( #62, #203, #267, #153, #119, #178 ) ) ;
#284 = AXIS2_PLACEMENT_3D ( 'NONE', #194, #277, #90 ) ;
#285 = DIRECTION ( 'NONE',  ( 0.0000000000000000000, -1.000000000000000000, 0.0000000000000000000 ) ) ;
#286 = DIRECTION ( 'NONE',  ( 0.0000000000000000000, 0.0000000000000000000, 1.000000000000000000 ) ) ;
#287 = VECTOR ( 'NONE', #179, 1000.000000000000000 ) ;
#288 = CARTESIAN_POINT ( 'NONE',  ( -9.021785666938841400, 0.0000000000000000000, 0.0000000000000000000 ) ) ;
#289 = EDGE_LOOP ( 'NONE', ( #32, #296, #83, #130 ) ) ;
#290 = EDGE_CURVE ( 'NONE', #1, #244, #12, .T. ) ;
#291 = AXIS2_PLACEMENT_3D ( 'NONE', #26, #81, #211 ) ;
#292 = DIRECTION ( 'NONE',  ( -0.0000000000000000000, 1.000000000000000000, 1.224646799147353200E-016 ) ) ;
#293 = LINE ( 'NONE', #256, #306 ) ;
#294 = EDGE_CURVE ( 'NONE', #52, #248, #82, .T. ) ;
#295 = CIRCLE ( 'NONE', #4, 2.499999999999998700 ) ;
#296 = ORIENTED_EDGE ( 'NONE', *, *, #209, .T. ) ;
#297 = UNCERTAINTY_MEASURE_WITH_UNIT (LENGTH_MEASURE( 1.000000000000000100E-005 ), #50, 'distance_accuracy_value', 'NONE');
#298 = MANIFOLD_SOLID_BREP ( 'Ðý×ª1', #15 ) ;
#299 = CIRCLE ( 'NONE', #28, 6.599999999999999600 ) ;
#300 = AXIS2_PLACEMENT_3D ( 'NONE', #337, #156, #312 ) ;
#301 = VERTEX_POINT ( 'NONE', #127 ) ;
#302 = ORIENTED_EDGE ( 'NONE', *, *, #175, .F. ) ;
#303 = AXIS2_PLACEMENT_3D ( 'NONE', #288, #133, #38 ) ;
#304 = SURFACE_SIDE_STYLE ('',( #245 ) ) ;
#305 = ADVANCED_FACE ( 'NONE', ( #69 ), #77, .T. ) ;
#306 = VECTOR ( 'NONE', #257, 1000.000000000000000 ) ;
#307 = EDGE_CURVE ( 'NONE', #244, #222, #272, .T. ) ;
#308 = AXIS2_PLACEMENT_3D ( 'NONE', #27, #191, #111 ) ;
#309 = DIRECTION ( 'NONE',  ( 1.000000000000000000, 0.0000000000000000000, 0.0000000000000000000 ) ) ;
#310 = ORIENTED_EDGE ( 'NONE', *, *, #240, .F. ) ;
#311 = EDGE_CURVE ( 'NONE', #86, #159, #9, .T. ) ;
#312 = DIRECTION ( 'NONE',  ( 0.0000000000000000000, 0.0000000000000000000, -1.000000000000000000 ) ) ;
#313 = ORIENTED_EDGE ( 'NONE', *, *, #326, .T. ) ;
#314 = CARTESIAN_POINT ( 'NONE',  ( 3.676785469968338700, 0.0000000000000000000, 2.499999999999998700 ) ) ;
#315 = FILL_AREA_STYLE_COLOUR ( '', #207 ) ;
#316 = CARTESIAN_POINT ( 'NONE',  ( 2.470023111430977200, 0.0000000000000000000, 0.0000000000000000000 ) ) ;
#317 = CIRCLE ( 'NONE', #273, 2.500000000000001300 ) ;
#318 = AXIS2_PLACEMENT_3D ( 'NONE', #281, #14, #154 ) ;
#319 = FACE_OUTER_BOUND ( 'NONE', #122, .T. ) ;
#320 = ORIENTED_EDGE ( 'NONE', *, *, #209, .F. ) ;
#321 = DIRECTION ( 'NONE',  ( -1.000000000000000000, -0.0000000000000000000, -0.0000000000000000000 ) ) ;
#322 =( NAMED_UNIT ( * ) PLANE_ANGLE_UNIT ( ) SI_UNIT ( $, .RADIAN. ) );
#323 = AXIS2_PLACEMENT_3D ( 'NONE', #162, #44, #232 ) ;
#324 = FACE_OUTER_BOUND ( 'NONE', #206, .T. ) ;
#325 = ORIENTED_EDGE ( 'NONE', *, *, #185, .F. ) ;
#326 = EDGE_CURVE ( 'NONE', #259, #335, #295, .T. ) ;
#327 = UNCERTAINTY_MEASURE_WITH_UNIT (LENGTH_MEASURE( 1.000000000000000100E-005 ), #150, 'distance_accuracy_value', 'NONE');
#328 = PRODUCT ( '145004', '145004', '', ( #239 ) ) ;
#329 = FACE_OUTER_BOUND ( 'NONE', #58, .T. ) ;
#330 =( NAMED_UNIT ( * ) SI_UNIT ( $, .STERADIAN. ) SOLID_ANGLE_UNIT ( ) );
#331 = ADVANCED_FACE ( 'NONE', ( #204 ), #157, .T. ) ;
#332 = CARTESIAN_POINT ( 'NONE',  ( 8.578214333061158200, 0.0000000000000000000, -9.243763471008167800E-018 ) ) ;
#333 = DIRECTION ( 'NONE',  ( 0.0000000000000000000, -1.224646799147353200E-016, 1.000000000000000000 ) ) ;
#334 = AXIS2_PLACEMENT_3D ( 'NONE', #260, #66, #229 ) ;
#335 = VERTEX_POINT ( 'NONE', #314 ) ;
#336 = DIRECTION ( 'NONE',  ( 0.0000000000000000000, 0.0000000000000000000, 1.000000000000000000 ) ) ;
#337 = CARTESIAN_POINT ( 'NONE',  ( 8.578214333061158200, 0.0000000000000000000, -9.243763471008167800E-018 ) ) ;
#338 = DIRECTION ( 'NONE',  ( 0.0000000000000000000, 0.0000000000000000000, 1.000000000000000000 ) ) ;
#339 = AXIS2_PLACEMENT_3D ( 'NONE', #168, #226, #41 ) ;
#340 = COLOUR_RGB ( '',1.000000000000000000, 1.000000000000000000, 1.000000000000000000 ) ;
#341 = SURFACE_SIDE_STYLE ('',( #167 ) ) ;
#342 = PRESENTATION_STYLE_ASSIGNMENT (( #347 ) ) ;
#343 = EDGE_LOOP ( 'NONE', ( #302, #212, #262, #140 ) ) ;
#344 = DIRECTION ( 'NONE',  ( 0.0000000000000000000, -1.224646799147353200E-016, 1.000000000000000000 ) ) ;
#345 = CARTESIAN_POINT ( 'NONE',  ( 0.1782143330611579400, 0.0000000000000000000, -1.863472483959460700E-017 ) ) ;
#346 = EDGE_CURVE ( 'NONE', #34, #335, #2, .T. ) ;
#347 = SURFACE_STYLE_USAGE ( .BOTH. , #56 ) ;
ENDSEC;
END-ISO-10303-21;
