ISO-10303-21;
HEADER;
FILE_DESCRIPTION (( 'STEP AP214' ),
    '1' );
FILE_NAME ('GLA21-025-020-UV.STEP',
    '2024-08-09T08:52:57',
    ( 'Windows User' ),
    ( 'P R C' ),
    'SwSTEP 2.0',
    'SolidWorks 2022',
    '' );
FILE_SCHEMA (( 'AUTOMOTIVE_DESIGN' ));
ENDSEC;

DATA;
#1 = PRODUCT_DEFINITION_CONTEXT ( 'detailed design', #147, 'design' ) ;
#2 = STYLED_ITEM ( 'NONE', ( #118 ), #95 ) ;
#3 = CARTESIAN_POINT ( 'NONE',  ( 0.000000000000000000, 0.000000000000000000, 2.336283185840705379 ) ) ;
#4 = FACE_OUTER_BOUND ( 'NONE', #80, .T. ) ;
#5 = CARTESIAN_POINT ( 'NONE',  ( 0.000000000000000000, 0.000000000000000000, 0.2000000000000005107 ) ) ;
#6 = CARTESIAN_POINT ( 'NONE',  ( 0.000000000000000000, 0.000000000000000000, 0.000000000000000000 ) ) ;
#7 = VECTOR ( 'NONE', #137, 1000.000000000000000 ) ;
#8 = ORIENTED_EDGE ( 'NONE', *, *, #198, .F. ) ;
#9 = CARTESIAN_POINT ( 'NONE',  ( 0.000000000000000000, 0.000000000000000000, 0.000000000000000000 ) ) ;
#10 = CYLINDRICAL_SURFACE ( 'NONE', #38, 12.50000000000000000 ) ;
#11 = ORIENTED_EDGE ( 'NONE', *, *, #134, .F. ) ;
#12 = EDGE_CURVE ( 'NONE', #148, #162, #103, .T. ) ;
#13 = ORIENTED_EDGE ( 'NONE', *, *, #198, .T. ) ;
#14 = CIRCLE ( 'NONE', #43, 12.50000000000000000 ) ;
#15 = DIRECTION ( 'NONE',  ( 0.000000000000000000, 0.000000000000000000, 1.000000000000000000 ) ) ;
#16 = ADVANCED_FACE ( 'NONE', ( #91 ), #191, .T. ) ;
#17 = AXIS2_PLACEMENT_3D ( 'NONE', #106, #20, #171 ) ;
#18 = CARTESIAN_POINT ( 'NONE',  ( 0.000000000000000000, 0.000000000000000000, 0.000000000000000000 ) ) ;
#19 = DIRECTION ( 'NONE',  ( -0.000000000000000000, -0.000000000000000000, -1.000000000000000000 ) ) ;
#20 = DIRECTION ( 'NONE',  ( -0.000000000000000000, -1.000000000000000000, 0.000000000000000000 ) ) ;
#21 = CARTESIAN_POINT ( 'NONE',  ( 0.000000000000000000, 0.000000000000000000, 0.2000000000000005107 ) ) ;
#22 = ORIENTED_EDGE ( 'NONE', *, *, #170, .T. ) ;
#23 = DIRECTION ( 'NONE',  ( -0.000000000000000000, -0.000000000000000000, 1.000000000000000000 ) ) ;
#24 = VECTOR ( 'NONE', #146, 1000.000000000000000 ) ;
#25 = DIRECTION ( 'NONE',  ( -1.000000000000000000, 0.000000000000000000, 0.000000000000000000 ) ) ;
#26 = EDGE_CURVE ( 'NONE', #29, #82, #53, .T. ) ;
#27 = CARTESIAN_POINT ( 'NONE',  ( -12.50000000000000000, 0.000000000000000000, 3.600000000000000089 ) ) ;
#28 = SURFACE_STYLE_FILL_AREA ( #33 ) ;
#29 = VERTEX_POINT ( 'NONE', #39 ) ;
#30 = AXIS2_PLACEMENT_3D ( 'NONE', #6, #124, #100 ) ;
#31 = PRODUCT_DEFINITION_SHAPE ( 'NONE', 'NONE',  #204 ) ;
#32 = CLOSED_SHELL ( 'NONE', ( #172, #34, #101, #188, #130, #16, #56 ) ) ;
#33 = FILL_AREA_STYLE ('',( #50 ) ) ;
#34 = ADVANCED_FACE ( 'NONE', ( #90 ), #175, .T. ) ;
#35 =( GEOMETRIC_REPRESENTATION_CONTEXT ( 3 ) GLOBAL_UNCERTAINTY_ASSIGNED_CONTEXT ( ( #214 ) ) GLOBAL_UNIT_ASSIGNED_CONTEXT ( ( #70, #69, #203 ) ) REPRESENTATION_CONTEXT ( 'NONE', 'WORKASPACE' ) );
#36 = DIRECTION ( 'NONE',  ( -0.000000000000000000, -1.000000000000000000, 0.000000000000000000 ) ) ;
#37 = PLANE ( 'NONE',  #30 ) ;
#38 = AXIS2_PLACEMENT_3D ( 'NONE', #196, #161, #25 ) ;
#39 = CARTESIAN_POINT ( 'NONE',  ( 12.29999999999999893, 0.000000000000000000, 0.000000000000000000 ) ) ;
#40 =( NAMED_UNIT ( * ) SI_UNIT ( $, .STERADIAN. ) SOLID_ANGLE_UNIT ( ) );
#41 = ORIENTED_EDGE ( 'NONE', *, *, #26, .F. ) ;
#42 = CARTESIAN_POINT ( 'NONE',  ( 0.000000000000000000, 0.000000000000000000, 3.600000000000000089 ) ) ;
#43 = AXIS2_PLACEMENT_3D ( 'NONE', #42, #94, #73 ) ;
#44 = EDGE_LOOP ( 'NONE', ( #144, #164, #64, #112 ) ) ;
#45 = CYLINDRICAL_SURFACE ( 'NONE', #86, 12.50000000000000000 ) ;
#46 = ORIENTED_EDGE ( 'NONE', *, *, #51, .T. ) ;
#47 = VERTEX_POINT ( 'NONE', #72 ) ;
#48 = AXIS2_PLACEMENT_3D ( 'NONE', #68, #15, #186 ) ;
#49 = MANIFOLD_SOLID_BREP ( 'µ¹½Ç1', #32 ) ;
#50 = FILL_AREA_STYLE_COLOUR ( '', #83 ) ;
#51 = EDGE_CURVE ( 'NONE', #82, #197, #209, .T. ) ;
#52 = PRODUCT_CONTEXT ( 'NONE', #151, 'mechanical' ) ;
#53 = CIRCLE ( 'NONE', #71, 12.29999999999999893 ) ;
#54 = DIRECTION ( 'NONE',  ( -1.000000000000000000, 0.000000000000000000, 0.000000000000000000 ) ) ;
#55 = CARTESIAN_POINT ( 'NONE',  ( -12.50000000000000000, 1.530808498934191521E-15, 0.2000000000000005107 ) ) ;
#56 = ADVANCED_FACE ( 'NONE', ( #4 ), #166, .T. ) ;
#57 = FACE_OUTER_BOUND ( 'NONE', #44, .T. ) ;
#58 = FACE_OUTER_BOUND ( 'NONE', #131, .T. ) ;
#59 = DIRECTION ( 'NONE',  ( -1.000000000000000000, 0.000000000000000000, 0.000000000000000000 ) ) ;
#60 = ORIENTED_EDGE ( 'NONE', *, *, #105, .T. ) ;
#61 = PRESENTATION_LAYER_ASSIGNMENT (  '', '', ( #2 ) ) ;
#62 = DIRECTION ( 'NONE',  ( -0.000000000000000000, -0.000000000000000000, -1.000000000000000000 ) ) ;
#63 = CIRCLE ( 'NONE', #201, 12.50000000000000000 ) ;
#64 = ORIENTED_EDGE ( 'NONE', *, *, #89, .T. ) ;
#65 = PRODUCT_DEFINITION_FORMATION_WITH_SPECIFIED_SOURCE ( 'ÈÎºÎ', '', #84, .NOT_KNOWN. ) ;
#66 =( NAMED_UNIT ( * ) SI_UNIT ( $, .STERADIAN. ) SOLID_ANGLE_UNIT ( ) );
#67 = EDGE_CURVE ( 'NONE', #162, #78, #87, .T. ) ;
#68 = CARTESIAN_POINT ( 'NONE',  ( 0.000000000000000000, 0.000000000000000000, 0.000000000000000000 ) ) ;
#69 =( NAMED_UNIT ( * ) PLANE_ANGLE_UNIT ( ) SI_UNIT ( $, .RADIAN. ) );
#70 =( LENGTH_UNIT ( ) NAMED_UNIT ( * ) SI_UNIT ( .MILLI., .METRE. ) );
#71 = AXIS2_PLACEMENT_3D ( 'NONE', #18, #155, #156 ) ;
#72 = CARTESIAN_POINT ( 'NONE',  ( 12.50000000000000000, 1.530808498934191521E-15, 0.2000000000000005107 ) ) ;
#73 = DIRECTION ( 'NONE',  ( 1.000000000000000000, 0.000000000000000000, 0.000000000000000000 ) ) ;
#74 = FILL_AREA_STYLE_COLOUR ( '', #178 ) ;
#75 = CARTESIAN_POINT ( 'NONE',  ( 0.000000000000000000, 0.000000000000000000, 0.2000000000000005107 ) ) ;
#76 = CARTESIAN_POINT ( 'NONE',  ( -7.693057790926980806E-16, 0.000000000000000000, 14.90000000000000036 ) ) ;
#77 = PRESENTATION_LAYER_ASSIGNMENT (  '', '', ( #119 ) ) ;
#78 = VERTEX_POINT ( 'NONE', #76 ) ;
#79 = DIRECTION ( 'NONE',  ( 1.000000000000000000, 0.000000000000000000, 0.000000000000000000 ) ) ;
#80 = EDGE_LOOP ( 'NONE', ( #115, #41, #123, #160 ) ) ;
#81 = CARTESIAN_POINT ( 'NONE',  ( -12.50000000000000000, 0.000000000000000000, 0.2000000000000005107 ) ) ;
#82 = VERTEX_POINT ( 'NONE', #176 ) ;
#83 = COLOUR_RGB ( '',1.000000000000000000, 1.000000000000000000, 1.000000000000000000 ) ;
#84 = PRODUCT ( 'GLA21-025-020-UV', 'GLA21-025-020-UV', '', ( #52 ) ) ;
#85 = UNCERTAINTY_MEASURE_WITH_UNIT (LENGTH_MEASURE( 1.000000000000000082E-05 ), #111, 'distance_accuracy_value', 'NONE');
#86 = AXIS2_PLACEMENT_3D ( 'NONE', #142, #213, #59 ) ;
#87 = CIRCLE ( 'NONE', #121, 12.56371681415929409 ) ;
#88 =( GEOMETRIC_REPRESENTATION_CONTEXT ( 3 ) GLOBAL_UNCERTAINTY_ASSIGNED_CONTEXT ( ( #85 ) ) GLOBAL_UNIT_ASSIGNED_CONTEXT ( ( #111, #152, #66 ) ) REPRESENTATION_CONTEXT ( 'NONE', 'WORKASPACE' ) );
#89 = EDGE_CURVE ( 'NONE', #148, #197, #116, .T. ) ;
#90 = FACE_OUTER_BOUND ( 'NONE', #96, .T. ) ;
#91 = FACE_OUTER_BOUND ( 'NONE', #181, .T. ) ;
#92 = LINE ( 'NONE', #99, #184 ) ;
#93 = DIRECTION ( 'NONE',  ( 1.000000000000000000, 0.000000000000000000, 0.000000000000000000 ) ) ;
#94 = DIRECTION ( 'NONE',  ( 0.000000000000000000, 0.000000000000000000, 1.000000000000000000 ) ) ;
#95 = ADVANCED_BREP_SHAPE_REPRESENTATION ( 'GLA21-025-020-UV', ( #49, #48 ), #88 ) ;
#96 = EDGE_LOOP ( 'NONE', ( #180, #125, #212 ) ) ;
#97 = DIRECTION ( 'NONE',  ( 1.000000000000000000, 0.000000000000000000, 0.000000000000000000 ) ) ;
#98 = ORIENTED_EDGE ( 'NONE', *, *, #145, .T. ) ;
#99 = CARTESIAN_POINT ( 'NONE',  ( 12.50000000000000000, 0.000000000000000000, 0.2000000000000005107 ) ) ;
#100 = DIRECTION ( 'NONE',  ( 1.000000000000000000, 0.000000000000000000, -0.000000000000000000 ) ) ;
#101 = ADVANCED_FACE ( 'NONE', ( #194 ), #45, .T. ) ;
#102 = ORIENTED_EDGE ( 'NONE', *, *, #105, .F. ) ;
#103 = CIRCLE ( 'NONE', #135, 12.50000000000000000 ) ;
#104 =( GEOMETRIC_REPRESENTATION_CONTEXT ( 3 ) GLOBAL_UNCERTAINTY_ASSIGNED_CONTEXT ( ( #107 ) ) GLOBAL_UNIT_ASSIGNED_CONTEXT ( ( #173, #138, #40 ) ) REPRESENTATION_CONTEXT ( 'NONE', 'WORKASPACE' ) );
#105 = EDGE_CURVE ( 'NONE', #47, #197, #190, .T. ) ;
#106 = CARTESIAN_POINT ( 'NONE',  ( 0.000000000000000000, 0.000000000000000000, 2.336283185840705379 ) ) ;
#107 = UNCERTAINTY_MEASURE_WITH_UNIT (LENGTH_MEASURE( 1.000000000000000082E-05 ), #173, 'distance_accuracy_value', 'NONE');
#108 = PRESENTATION_STYLE_ASSIGNMENT (( #207 ) ) ;
#109 = DIRECTION ( 'NONE',  ( 1.000000000000000000, 0.000000000000000000, 0.000000000000000000 ) ) ;
#110 = SURFACE_SIDE_STYLE ('',( #158 ) ) ;
#111 =( LENGTH_UNIT ( ) NAMED_UNIT ( * ) SI_UNIT ( .MILLI., .METRE. ) );
#112 = ORIENTED_EDGE ( 'NONE', *, *, #206, .T. ) ;
#113 = FACE_OUTER_BOUND ( 'NONE', #117, .T. ) ;
#114 = AXIS2_PLACEMENT_3D ( 'NONE', #21, #163, #109 ) ;
#115 = ORIENTED_EDGE ( 'NONE', *, *, #51, .F. ) ;
#116 = LINE ( 'NONE', #27, #24 ) ;
#117 = EDGE_LOOP ( 'NONE', ( #150, #13 ) ) ;
#118 = PRESENTATION_STYLE_ASSIGNMENT (( #200 ) ) ;
#119 = STYLED_ITEM ( 'NONE', ( #108 ), #49 ) ;
#120 = DIRECTION ( 'NONE',  ( -0.000000000000000000, -0.000000000000000000, 1.000000000000000000 ) ) ;
#121 = AXIS2_PLACEMENT_3D ( 'NONE', #189, #165, #193 ) ;
#122 = DIRECTION ( 'NONE',  ( -0.000000000000000000, -0.000000000000000000, 1.000000000000000000 ) ) ;
#123 = ORIENTED_EDGE ( 'NONE', *, *, #215, .T. ) ;
#124 = DIRECTION ( 'NONE',  ( 0.000000000000000000, 0.000000000000000000, 1.000000000000000000 ) ) ;
#125 = ORIENTED_EDGE ( 'NONE', *, *, #67, .T. ) ;
#126 = CARTESIAN_POINT ( 'NONE',  ( 12.50000000000000000, 1.530808498934191521E-15, 3.600000000000000089 ) ) ;
#127 = CARTESIAN_POINT ( 'NONE',  ( 0.000000000000000000, 0.000000000000000000, 3.600000000000000089 ) ) ;
#128 = DIRECTION ( 'NONE',  ( 0.000000000000000000, 1.000000000000000000, 0.000000000000000000 ) ) ;
#129 = CONICAL_SURFACE ( 'NONE', #202, 12.50000000000000000, 0.7853981633974526089 ) ;
#130 = ADVANCED_FACE ( 'NONE', ( #113 ), #37, .F. ) ;
#131 = EDGE_LOOP ( 'NONE', ( #8, #46, #102, #182 ) ) ;
#132 = EDGE_LOOP ( 'NONE', ( #11, #22, #60, #216 ) ) ;
#133 = CIRCLE ( 'NONE', #210, 12.29999999999999893 ) ;
#134 = EDGE_CURVE ( 'NONE', #162, #148, #14, .T. ) ;
#135 = AXIS2_PLACEMENT_3D ( 'NONE', #127, #208, #93 ) ;
#136 = FILL_AREA_STYLE ('',( #74 ) ) ;
#137 = DIRECTION ( 'NONE',  ( -0.7071067811865505703, 8.659560562354969836E-17, 0.7071067811865444641 ) ) ;
#138 =( NAMED_UNIT ( * ) PLANE_ANGLE_UNIT ( ) SI_UNIT ( $, .RADIAN. ) );
#139 = CARTESIAN_POINT ( 'NONE',  ( 0.000000000000000000, 0.000000000000000000, 2.336283185840705379 ) ) ;
#140 = MECHANICAL_DESIGN_GEOMETRIC_PRESENTATION_REPRESENTATION (  '', ( #2 ), #35 ) ;
#141 = AXIS2_PLACEMENT_3D ( 'NONE', #139, #128, #159 ) ;
#142 = CARTESIAN_POINT ( 'NONE',  ( 0.000000000000000000, 0.000000000000000000, 3.600000000000000089 ) ) ;
#143 = DIRECTION ( 'NONE',  ( 1.000000000000000000, 0.000000000000000000, 0.000000000000000000 ) ) ;
#144 = ORIENTED_EDGE ( 'NONE', *, *, #170, .F. ) ;
#145 = EDGE_CURVE ( 'NONE', #148, #78, #185, .T. ) ;
#146 = DIRECTION ( 'NONE',  ( -0.000000000000000000, -0.000000000000000000, -1.000000000000000000 ) ) ;
#147 = APPLICATION_CONTEXT ( 'automotive_design' ) ;
#148 = VERTEX_POINT ( 'NONE', #177 ) ;
#149 = APPLICATION_PROTOCOL_DEFINITION ( 'draft international standard', 'automotive_design', 1998, #151 ) ;
#150 = ORIENTED_EDGE ( 'NONE', *, *, #26, .T. ) ;
#151 = APPLICATION_CONTEXT ( 'automotive_design' ) ;
#152 =( NAMED_UNIT ( * ) PLANE_ANGLE_UNIT ( ) SI_UNIT ( $, .RADIAN. ) );
#153 = PRODUCT_RELATED_PRODUCT_CATEGORY ( 'part', '', ( #84 ) ) ;
#154 = SHAPE_DEFINITION_REPRESENTATION ( #31, #95 ) ;
#155 = DIRECTION ( 'NONE',  ( -0.000000000000000000, -0.000000000000000000, -1.000000000000000000 ) ) ;
#156 = DIRECTION ( 'NONE',  ( 1.000000000000000000, 0.000000000000000000, 0.000000000000000000 ) ) ;
#157 = CARTESIAN_POINT ( 'NONE',  ( 0.000000000000000000, 0.000000000000000000, 0.2000000000000005107 ) ) ;
#158 = SURFACE_STYLE_FILL_AREA ( #136 ) ;
#159 = DIRECTION ( 'NONE',  ( 0.000000000000000000, 0.000000000000000000, 1.000000000000000000 ) ) ;
#160 = ORIENTED_EDGE ( 'NONE', *, *, #206, .F. ) ;
#161 = DIRECTION ( 'NONE',  ( -0.000000000000000000, -0.000000000000000000, -1.000000000000000000 ) ) ;
#162 = VERTEX_POINT ( 'NONE', #126 ) ;
#163 = DIRECTION ( 'NONE',  ( -0.000000000000000000, -0.000000000000000000, 1.000000000000000000 ) ) ;
#164 = ORIENTED_EDGE ( 'NONE', *, *, #12, .F. ) ;
#165 = DIRECTION ( 'NONE',  ( -1.224646799147353207E-16, -1.000000000000000000, -0.000000000000000000 ) ) ;
#166 = CONICAL_SURFACE ( 'NONE', #195, 12.50000000000000000, 0.7853981633974526089 ) ;
#167 = SURFACE_SIDE_STYLE ('',( #28 ) ) ;
#168 = ORIENTED_EDGE ( 'NONE', *, *, #134, .T. ) ;
#169 = VECTOR ( 'NONE', #62, 1000.000000000000000 ) ;
#170 = EDGE_CURVE ( 'NONE', #162, #47, #211, .T. ) ;
#171 = DIRECTION ( 'NONE',  ( -1.000000000000000000, 0.000000000000000000, 0.000000000000000000 ) ) ;
#172 = ADVANCED_FACE ( 'NONE', ( #58 ), #129, .T. ) ;
#173 =( LENGTH_UNIT ( ) NAMED_UNIT ( * ) SI_UNIT ( .MILLI., .METRE. ) );
#174 = CARTESIAN_POINT ( 'NONE',  ( 12.50000000000000000, 1.530808498934191521E-15, 3.600000000000000089 ) ) ;
#175 = SPHERICAL_SURFACE ( 'NONE', #205, 12.56371681415929409 ) ;
#176 = CARTESIAN_POINT ( 'NONE',  ( -12.29999999999999893, 1.518562030942717967E-15, 0.000000000000000000 ) ) ;
#177 = CARTESIAN_POINT ( 'NONE',  ( -12.50000000000000000, 0.000000000000000000, 3.600000000000000089 ) ) ;
#178 = COLOUR_RGB ( '',1.000000000000000000, 1.000000000000000000, 1.000000000000000000 ) ;
#179 = DIRECTION ( 'NONE',  ( 1.000000000000000000, 0.000000000000000000, 0.000000000000000000 ) ) ;
#180 = ORIENTED_EDGE ( 'NONE', *, *, #12, .T. ) ;
#181 = EDGE_LOOP ( 'NONE', ( #199, #168, #98 ) ) ;
#182 = ORIENTED_EDGE ( 'NONE', *, *, #215, .F. ) ;
#183 = MECHANICAL_DESIGN_GEOMETRIC_PRESENTATION_REPRESENTATION (  '', ( #119 ), #104 ) ;
#184 = VECTOR ( 'NONE', #192, 1000.000000000000000 ) ;
#185 = CIRCLE ( 'NONE', #141, 12.56371681415929409 ) ;
#186 = DIRECTION ( 'NONE',  ( 1.000000000000000000, 0.000000000000000000, 0.000000000000000000 ) ) ;
#187 = APPLICATION_PROTOCOL_DEFINITION ( 'draft international standard', 'automotive_design', 1998, #147 ) ;
#188 = ADVANCED_FACE ( 'NONE', ( #57 ), #10, .T. ) ;
#189 = CARTESIAN_POINT ( 'NONE',  ( 0.000000000000000000, 0.000000000000000000, 2.336283185840705379 ) ) ;
#190 = CIRCLE ( 'NONE', #114, 12.50000000000000000 ) ;
#191 = SPHERICAL_SURFACE ( 'NONE', #17, 12.56371681415929409 ) ;
#192 = DIRECTION ( 'NONE',  ( 0.7071067811865505703, 0.000000000000000000, 0.7071067811865444641 ) ) ;
#193 = DIRECTION ( 'NONE',  ( 1.000000000000000000, -1.224646799147353207E-16, 0.000000000000000000 ) ) ;
#194 = FACE_OUTER_BOUND ( 'NONE', #132, .T. ) ;
#195 = AXIS2_PLACEMENT_3D ( 'NONE', #157, #120, #79 ) ;
#196 = CARTESIAN_POINT ( 'NONE',  ( 0.000000000000000000, 0.000000000000000000, 3.600000000000000089 ) ) ;
#197 = VERTEX_POINT ( 'NONE', #81 ) ;
#198 = EDGE_CURVE ( 'NONE', #82, #29, #133, .T. ) ;
#199 = ORIENTED_EDGE ( 'NONE', *, *, #67, .F. ) ;
#200 = SURFACE_STYLE_USAGE ( .BOTH. , #167 ) ;
#201 = AXIS2_PLACEMENT_3D ( 'NONE', #75, #122, #179 ) ;
#202 = AXIS2_PLACEMENT_3D ( 'NONE', #5, #23, #97 ) ;
#203 =( NAMED_UNIT ( * ) SI_UNIT ( $, .STERADIAN. ) SOLID_ANGLE_UNIT ( ) );
#204 = PRODUCT_DEFINITION ( 'Î´Öª', '', #65, #1 ) ;
#205 = AXIS2_PLACEMENT_3D ( 'NONE', #3, #36, #54 ) ;
#206 = EDGE_CURVE ( 'NONE', #197, #47, #63, .T. ) ;
#207 = SURFACE_STYLE_USAGE ( .BOTH. , #110 ) ;
#208 = DIRECTION ( 'NONE',  ( 0.000000000000000000, 0.000000000000000000, 1.000000000000000000 ) ) ;
#209 = LINE ( 'NONE', #55, #7 ) ;
#210 = AXIS2_PLACEMENT_3D ( 'NONE', #9, #19, #143 ) ;
#211 = LINE ( 'NONE', #174, #169 ) ;
#212 = ORIENTED_EDGE ( 'NONE', *, *, #145, .F. ) ;
#213 = DIRECTION ( 'NONE',  ( -0.000000000000000000, -0.000000000000000000, -1.000000000000000000 ) ) ;
#214 = UNCERTAINTY_MEASURE_WITH_UNIT (LENGTH_MEASURE( 1.000000000000000082E-05 ), #70, 'distance_accuracy_value', 'NONE');
#215 = EDGE_CURVE ( 'NONE', #29, #47, #92, .T. ) ;
#216 = ORIENTED_EDGE ( 'NONE', *, *, #89, .F. ) ;
ENDSEC;
END-ISO-10303-21;
