ISO-10303-21;
HEADER;
FILE_DESCRIPTION (( 'STEP AP203' ),
    '1' );
FILE_NAME ('xianzhey.STEP',
    '2024-05-10T09:57:45',
    ( '' ),
    ( '' ),
    'SwSTEP 2.0',
    'SolidWorks 2020',
    '' );
FILE_SCHEMA (( 'CONFIG_CONTROL_DESIGN' ));
ENDSEC;

DATA;
#1 = CALENDAR_DATE ( 2024, 10, 5 ) ;
#2 = COORDINATED_UNIVERSAL_TIME_OFFSET ( 8, 0, .AHEAD. ) ;
#3 = AXIS2_PLACEMENT_3D ( 'NONE', #201, #148, #131 ) ;
#4 = DIRECTION ( 'NONE',  ( 0.000000000000000000, 0.000000000000000000, -1.000000000000000000 ) ) ;
#5 = APPROVAL ( #68, 'Î´Ö¸¶¨' ) ;
#6 = ORIENTED_EDGE ( 'NONE', *, *, #206, .T. ) ;
#7 = CARTESIAN_POINT ( 'NONE',  ( 8.036223290544091569, -0.05443465769190515557, 0.05443465769190653641 ) ) ;
#8 = DIRECTION ( 'NONE',  ( -1.000000000000000000, -0.000000000000000000, -0.000000000000000000 ) ) ;
#9 = PRODUCT_DEFINITION ( 'Î´Öª', '', #146, #35 ) ;
#10 = CC_DESIGN_APPROVAL ( #5, ( #58 ) ) ;
#11 = CARTESIAN_POINT ( 'NONE',  ( -1.455000000000000515, -0.05443465769190496822, -1.554434657691907473 ) ) ;
#12 = DIRECTION ( 'NONE',  ( 0.000000000000000000, 0.000000000000000000, 1.000000000000000000 ) ) ;
#13 = EDGE_CURVE ( 'NONE', #22, #123, #227, .T. ) ;
#14 = AXIS2_PLACEMENT_3D ( 'NONE', #203, #115, #77 ) ;
#15 = ADVANCED_FACE ( 'NONE', ( #53 ), #152, .F. ) ;
#16 = MANIFOLD_SOLID_BREP ( 'Ðý×ª1', #184 ) ;
#17 = PERSON ( 'Î´Ö¸¶¨', 'Î´Ö¸¶¨', 'Î´Ö¸¶¨', ('Î´Ö¸¶¨'), ('Î´Ö¸¶¨'), ('Î´Ö¸¶¨') ) ;
#18 = PERSON_AND_ORGANIZATION_ROLE ( 'creator' ) ;
#19 = CC_DESIGN_APPROVAL ( #78, ( #9 ) ) ;
#20 = APPLICATION_PROTOCOL_DEFINITION ( 'international standard', 'config_control_design', 1994, #214 ) ;
#21 = EDGE_LOOP ( 'NONE', ( #194, #94, #195 ) ) ;
#22 = VERTEX_POINT ( 'NONE', #143 ) ;
#23 = ORIENTED_EDGE ( 'NONE', *, *, #169, .T. ) ;
#24 = TOROIDAL_SURFACE ( 'NONE', #119, 0.05443465769190464210, 6.750000000000001776 ) ;
#25 = FACE_OUTER_BOUND ( 'NONE', #213, .T. ) ;
#26 = CARTESIAN_POINT ( 'NONE',  ( 1.454999999999999627, -0.05443465769190496822, -1.554434657691905697 ) ) ;
#27 = PRODUCT ( 'xianzhey', 'xianzhey', '', ( #224 ) ) ;
#28 = CARTESIAN_POINT ( 'NONE',  ( -1.286442785368980379, -0.05443465769190515557, 0.000000000000000000 ) ) ;
#29 = ADVANCED_FACE ( 'NONE', ( #69 ), #212, .T. ) ;
#30 = CARTESIAN_POINT ( 'NONE',  ( 1.454999999999999627, -0.05443465769190515557, 0.000000000000000000 ) ) ;
#31 = TOROIDAL_SURFACE ( 'NONE', #91, 0.05443465769190464210, 6.750000000000001776 ) ;
#32 = EDGE_CURVE ( 'NONE', #171, #22, #215, .T. ) ;
#33 = CALENDAR_DATE ( 2024, 10, 5 ) ;
#34 = ORIENTED_EDGE ( 'NONE', *, *, #32, .T. ) ;
#35 = DESIGN_CONTEXT ( 'detailed design', #214, 'design' ) ;
#36 = ORGANIZATION ( 'Î´Ö¸¶¨', 'Î´Ö¸¶¨', '' ) ;
#37 = COORDINATED_UNIVERSAL_TIME_OFFSET ( 8, 0, .AHEAD. ) ;
#38 = CARTESIAN_POINT ( 'NONE',  ( -1.286442785368980379, -0.05443465769190515557, 0.000000000000000000 ) ) ;
#39 = ADVANCED_FACE ( 'NONE', ( #42 ), #31, .F. ) ;
#40 = ORIENTED_EDGE ( 'NONE', *, *, #138, .F. ) ;
#41 = VERTEX_POINT ( 'NONE', #62 ) ;
#42 = FACE_OUTER_BOUND ( 'NONE', #160, .T. ) ;
#43 = CIRCLE ( 'NONE', #223, 6.749999999999999112 ) ;
#44 = LINE ( 'NONE', #165, #140 ) ;
#45 = CARTESIAN_POINT ( 'NONE',  ( -8.036223290544093345, -0.05443465769190514864, -0.05443465769190464210 ) ) ;
#46 =( NAMED_UNIT ( * ) SI_UNIT ( $, .STERADIAN. ) SOLID_ANGLE_UNIT ( ) );
#47 = CC_DESIGN_DATE_AND_TIME_ASSIGNMENT ( #193, #186, ( #58 ) ) ;
#48 = CARTESIAN_POINT ( 'NONE',  ( -1.455000000000000737, -0.05443465769190515557, 0.000000000000000000 ) ) ;
#49 = PERSON_AND_ORGANIZATION_ROLE ( 'classification_officer' ) ;
#50 = DIRECTION ( 'NONE',  ( 0.000000000000000000, 0.000000000000000000, 1.000000000000000000 ) ) ;
#51 = AXIS2_PLACEMENT_3D ( 'NONE', #153, #50, #118 ) ;
#52 = APPROVAL_STATUS ( 'not_yet_approved' ) ;
#53 = FACE_OUTER_BOUND ( 'NONE', #21, .T. ) ;
#54 = APPROVAL_DATE_TIME ( #141, #5 ) ;
#55 = CARTESIAN_POINT ( 'NONE',  ( 8.036223290544091569, -0.05443465769190515557, 0.000000000000000000 ) ) ;
#56 = CALENDAR_DATE ( 2024, 10, 5 ) ;
#57 = ORIENTED_EDGE ( 'NONE', *, *, #120, .T. ) ;
#58 = SECURITY_CLASSIFICATION ( '', '', #157 ) ;
#59 = AXIS2_PLACEMENT_3D ( 'NONE', #30, #161, #129 ) ;
#60 = EDGE_LOOP ( 'NONE', ( #196, #144, #126, #92 ) ) ;
#61 = DIRECTION ( 'NONE',  ( 0.000000000000000000, 0.000000000000000000, 1.000000000000000000 ) ) ;
#62 = CARTESIAN_POINT ( 'NONE',  ( -1.455000000000000515, -0.05443465769190515557, 1.554434657691907473 ) ) ;
#63 = DIRECTION ( 'NONE',  ( -1.000000000000000000, -0.000000000000000000, -0.000000000000000000 ) ) ;
#64 = CARTESIAN_POINT ( 'NONE',  ( 8.036223290544091569, -0.05443465769190514864, -0.05443465769190653641 ) ) ;
#65 = PERSON_AND_ORGANIZATION ( #17, #36 ) ;
#66 = PERSON_AND_ORGANIZATION ( #17, #36 ) ;
#67 = LOCAL_TIME ( 17, 57, 45.00000000000000000, #116 ) ;
#68 = APPROVAL_STATUS ( 'not_yet_approved' ) ;
#69 = FACE_OUTER_BOUND ( 'NONE', #60, .T. ) ;
#70 = APPROVAL_ROLE ( '' ) ;
#71 = DIRECTION ( 'NONE',  ( 0.000000000000000000, 0.000000000000000000, 1.000000000000000000 ) ) ;
#72 = ORIENTED_EDGE ( 'NONE', *, *, #13, .T. ) ;
#73 = VERTEX_POINT ( 'NONE', #133 ) ;
#74 = DIRECTION ( 'NONE',  ( 0.000000000000000000, -1.000000000000000000, 0.000000000000000000 ) ) ;
#75 = ADVANCED_BREP_SHAPE_REPRESENTATION ( 'xianzhey', ( #16, #51 ), #151 ) ;
#76 = DIRECTION ( 'NONE',  ( -1.000000000000000000, -0.000000000000000000, -0.000000000000000000 ) ) ;
#77 = DIRECTION ( 'NONE',  ( 0.000000000000000000, 0.000000000000000000, 1.000000000000000000 ) ) ;
#78 = APPROVAL ( #189, 'Î´Ö¸¶¨' ) ;
#79 =( NAMED_UNIT ( * ) PLANE_ANGLE_UNIT ( ) SI_UNIT ( $, .RADIAN. ) );
#80 = DIRECTION ( 'NONE',  ( -1.000000000000000000, -0.000000000000000000, -0.000000000000000000 ) ) ;
#81 = AXIS2_PLACEMENT_3D ( 'NONE', #28, #80, #163 ) ;
#82 = APPROVAL_DATE_TIME ( #107, #78 ) ;
#83 = UNCERTAINTY_MEASURE_WITH_UNIT (LENGTH_MEASURE( 1.000000000000000082E-05 ), #99, 'distance_accuracy_value', 'NONE');
#84 = AXIS2_PLACEMENT_3D ( 'NONE', #38, #109, #175 ) ;
#85 = CC_DESIGN_PERSON_AND_ORGANIZATION_ASSIGNMENT ( #66, #204, ( #146 ) ) ;
#86 = SHAPE_DEFINITION_REPRESENTATION ( #220, #75 ) ;
#87 = COORDINATED_UNIVERSAL_TIME_OFFSET ( 8, 0, .AHEAD. ) ;
#88 = LOCAL_TIME ( 17, 57, 45.00000000000000000, #37 ) ;
#89 = VERTEX_POINT ( 'NONE', #11 ) ;
#90 = APPROVAL_ROLE ( '' ) ;
#91 = AXIS2_PLACEMENT_3D ( 'NONE', #132, #76, #61 ) ;
#92 = ORIENTED_EDGE ( 'NONE', *, *, #120, .F. ) ;
#93 = EDGE_CURVE ( 'NONE', #171, #89, #180, .T. ) ;
#94 = ORIENTED_EDGE ( 'NONE', *, *, #138, .T. ) ;
#95 = FACE_OUTER_BOUND ( 'NONE', #128, .T. ) ;
#96 = ADVANCED_FACE ( 'NONE', ( #25 ), #98, .T. ) ;
#97 = APPROVAL_PERSON_ORGANIZATION ( #105, #182, #90 ) ;
#98 = CYLINDRICAL_SURFACE ( 'NONE', #81, 1.554434657691905697 ) ;
#99 =( LENGTH_UNIT ( ) NAMED_UNIT ( * ) SI_UNIT ( .MILLI., .METRE. ) );
#100 = CARTESIAN_POINT ( 'NONE',  ( -1.286442785368980379, -0.05443465769190496822, -1.554434657691905697 ) ) ;
#101 = APPROVAL_ROLE ( '' ) ;
#102 = AXIS2_PLACEMENT_3D ( 'NONE', #45, #216, #197 ) ;
#103 = PERSON_AND_ORGANIZATION ( #17, #36 ) ;
#104 = ADVANCED_FACE ( 'NONE', ( #95 ), #130, .F. ) ;
#105 = PERSON_AND_ORGANIZATION ( #17, #36 ) ;
#106 = ORIENTED_EDGE ( 'NONE', *, *, #210, .T. ) ;
#107 = DATE_AND_TIME ( #33, #67 ) ;
#108 = APPROVAL_PERSON_ORGANIZATION ( #103, #5, #101 ) ;
#109 = DIRECTION ( 'NONE',  ( -1.000000000000000000, -0.000000000000000000, -0.000000000000000000 ) ) ;
#110 = CC_DESIGN_DATE_AND_TIME_ASSIGNMENT ( #172, #154, ( #9 ) ) ;
#111 = AXIS2_PLACEMENT_3D ( 'NONE', #113, #179, #181 ) ;
#112 = DIRECTION ( 'NONE',  ( -1.000000000000000000, -0.000000000000000000, -0.000000000000000000 ) ) ;
#113 = CARTESIAN_POINT ( 'NONE',  ( 1.454999999999999627, -0.05443465769190515557, 0.000000000000000000 ) ) ;
#114 = AXIS2_PLACEMENT_3D ( 'NONE', #55, #192, #71 ) ;
#115 = DIRECTION ( 'NONE',  ( -1.000000000000000000, -0.000000000000000000, -0.000000000000000000 ) ) ;
#116 = COORDINATED_UNIVERSAL_TIME_OFFSET ( 8, 0, .AHEAD. ) ;
#117 = APPROVAL_PERSON_ORGANIZATION ( #150, #78, #70 ) ;
#118 = DIRECTION ( 'NONE',  ( 1.000000000000000000, 0.000000000000000000, 0.000000000000000000 ) ) ;
#119 = AXIS2_PLACEMENT_3D ( 'NONE', #147, #63, #12 ) ;
#120 = EDGE_CURVE ( 'NONE', #22, #41, #44, .T. ) ;
#121 = CIRCLE ( 'NONE', #111, 1.554434657691905697 ) ;
#122 = PERSON_AND_ORGANIZATION ( #17, #36 ) ;
#123 = VERTEX_POINT ( 'NONE', #222 ) ;
#124 = ORIENTED_EDGE ( 'NONE', *, *, #218, .F. ) ;
#125 = AXIS2_PLACEMENT_3D ( 'NONE', #7, #74, #4 ) ;
#126 = ORIENTED_EDGE ( 'NONE', *, *, #169, .F. ) ;
#127 = CC_DESIGN_PERSON_AND_ORGANIZATION_ASSIGNMENT ( #142, #49, ( #58 ) ) ;
#128 = EDGE_LOOP ( 'NONE', ( #40, #124, #72 ) ) ;
#129 = DIRECTION ( 'NONE',  ( 0.000000000000000000, 0.000000000000000000, 1.000000000000000000 ) ) ;
#130 = TOROIDAL_SURFACE ( 'NONE', #188, 0.05443465769190653641, 6.749999999999999112 ) ;
#131 = DIRECTION ( 'NONE',  ( 0.000000000000000000, 0.000000000000000000, -1.000000000000000000 ) ) ;
#132 = CARTESIAN_POINT ( 'NONE',  ( -8.036223290544093345, -0.05443465769190515557, 0.000000000000000000 ) ) ;
#133 = CARTESIAN_POINT ( 'NONE',  ( -1.286442785368980379, -0.05443465769190515557, 0.000000000000000000 ) ) ;
#134 = EDGE_CURVE ( 'NONE', #73, #41, #208, .T. ) ;
#135 = PERSON_AND_ORGANIZATION_ROLE ( 'creator' ) ;
#136 = DATE_AND_TIME ( #170, #162 ) ;
#137 = CC_DESIGN_APPROVAL ( #182, ( #146 ) ) ;
#138 = EDGE_CURVE ( 'NONE', #171, #123, #43, .T. ) ;
#139 = PERSON_AND_ORGANIZATION ( #17, #36 ) ;
#140 = VECTOR ( 'NONE', #166, 1000.000000000000000 ) ;
#141 = DATE_AND_TIME ( #168, #88 ) ;
#142 = PERSON_AND_ORGANIZATION ( #17, #36 ) ;
#143 = CARTESIAN_POINT ( 'NONE',  ( 1.454999999999999627, -0.05443465769190515557, 1.554434657691905697 ) ) ;
#144 = ORIENTED_EDGE ( 'NONE', *, *, #93, .T. ) ;
#145 = DIRECTION ( 'NONE',  ( 0.000000000000000000, 0.000000000000000000, 1.000000000000000000 ) ) ;
#146 = PRODUCT_DEFINITION_FORMATION_WITH_SPECIFIED_SOURCE ( 'ÈÎºÎ', '', #27, .NOT_KNOWN. ) ;
#147 = CARTESIAN_POINT ( 'NONE',  ( -8.036223290544093345, -0.05443465769190515557, 0.000000000000000000 ) ) ;
#148 = DIRECTION ( 'NONE',  ( 0.000000000000000000, -1.000000000000000000, 0.000000000000000000 ) ) ;
#149 = DIRECTION ( 'NONE',  ( 0.000000000000000000, 0.000000000000000000, 1.000000000000000000 ) ) ;
#150 = PERSON_AND_ORGANIZATION ( #17, #36 ) ;
#151 =( GEOMETRIC_REPRESENTATION_CONTEXT ( 3 ) GLOBAL_UNCERTAINTY_ASSIGNED_CONTEXT ( ( #83 ) ) GLOBAL_UNIT_ASSIGNED_CONTEXT ( ( #99, #79, #46 ) ) REPRESENTATION_CONTEXT ( 'NONE', 'WORKASPACE' ) );
#152 = TOROIDAL_SURFACE ( 'NONE', #114, 0.05443465769190653641, 6.749999999999999112 ) ;
#153 = CARTESIAN_POINT ( 'NONE',  ( 0.000000000000000000, 0.000000000000000000, 0.000000000000000000 ) ) ;
#154 = DATE_TIME_ROLE ( 'creation_date' ) ;
#155 = ORIENTED_EDGE ( 'NONE', *, *, #206, .F. ) ;
#156 = VECTOR ( 'NONE', #8, 1000.000000000000000 ) ;
#157 = SECURITY_CLASSIFICATION_LEVEL ( 'unclassified' ) ;
#158 = CC_DESIGN_PERSON_AND_ORGANIZATION_ASSIGNMENT ( #139, #207, ( #27 ) ) ;
#159 = ORIENTED_EDGE ( 'NONE', *, *, #210, .F. ) ;
#160 = EDGE_LOOP ( 'NONE', ( #176, #106, #6 ) ) ;
#161 = DIRECTION ( 'NONE',  ( -1.000000000000000000, -0.000000000000000000, -0.000000000000000000 ) ) ;
#162 = LOCAL_TIME ( 17, 57, 45.00000000000000000, #211 ) ;
#163 = DIRECTION ( 'NONE',  ( 0.000000000000000000, 0.000000000000000000, 1.000000000000000000 ) ) ;
#164 = CC_DESIGN_PERSON_AND_ORGANIZATION_ASSIGNMENT ( #122, #18, ( #146 ) ) ;
#165 = CARTESIAN_POINT ( 'NONE',  ( -1.286442785368980379, -0.05443465769190515557, 1.554434657691905697 ) ) ;
#166 = DIRECTION ( 'NONE',  ( -1.000000000000000000, -0.000000000000000000, -0.000000000000000000 ) ) ;
#167 = CIRCLE ( 'NONE', #14, 1.554434657691905697 ) ;
#168 = CALENDAR_DATE ( 2024, 10, 5 ) ;
#169 = EDGE_CURVE ( 'NONE', #41, #89, #217, .T. ) ;
#170 = CALENDAR_DATE ( 2024, 10, 5 ) ;
#171 = VERTEX_POINT ( 'NONE', #26 ) ;
#172 = DATE_AND_TIME ( #1, #205 ) ;
#173 = CC_DESIGN_SECURITY_CLASSIFICATION ( #58, ( #146 ) ) ;
#174 = EDGE_LOOP ( 'NONE', ( #159, #209, #23 ) ) ;
#175 = DIRECTION ( 'NONE',  ( 0.000000000000000000, 0.000000000000000000, 1.000000000000000000 ) ) ;
#176 = ORIENTED_EDGE ( 'NONE', *, *, #134, .F. ) ;
#177 = ORIENTED_EDGE ( 'NONE', *, *, #93, .F. ) ;
#178 = AXIS2_PLACEMENT_3D ( 'NONE', #48, #112, #145 ) ;
#179 = DIRECTION ( 'NONE',  ( -1.000000000000000000, -0.000000000000000000, -0.000000000000000000 ) ) ;
#180 = LINE ( 'NONE', #100, #156 ) ;
#181 = DIRECTION ( 'NONE',  ( 0.000000000000000000, 0.000000000000000000, 1.000000000000000000 ) ) ;
#182 = APPROVAL ( #52, 'Î´Ö¸¶¨' ) ;
#183 = DIRECTION ( 'NONE',  ( -0.000000000000000000, 1.000000000000000000, 1.224646799147353207E-16 ) ) ;
#184 = CLOSED_SHELL ( 'NONE', ( #15, #29, #39, #200, #96, #104 ) ) ;
#185 = FACE_OUTER_BOUND ( 'NONE', #174, .T. ) ;
#186 = DATE_TIME_ROLE ( 'classification_date' ) ;
#187 = LOCAL_TIME ( 17, 57, 45.00000000000000000, #2 ) ;
#188 = AXIS2_PLACEMENT_3D ( 'NONE', #219, #221, #149 ) ;
#189 = APPROVAL_STATUS ( 'not_yet_approved' ) ;
#190 = APPROVAL_DATE_TIME ( #136, #182 ) ;
#191 = PRODUCT_RELATED_PRODUCT_CATEGORY ( 'detail', '', ( #27 ) ) ;
#192 = DIRECTION ( 'NONE',  ( -1.000000000000000000, -0.000000000000000000, -0.000000000000000000 ) ) ;
#193 = DATE_AND_TIME ( #56, #187 ) ;
#194 = ORIENTED_EDGE ( 'NONE', *, *, #32, .F. ) ;
#195 = ORIENTED_EDGE ( 'NONE', *, *, #13, .F. ) ;
#196 = ORIENTED_EDGE ( 'NONE', *, *, #218, .T. ) ;
#197 = DIRECTION ( 'NONE',  ( 0.000000000000000000, -1.224746898548439874E-16, 1.000000000000000000 ) ) ;
#198 = CIRCLE ( 'NONE', #102, 6.750000000000001776 ) ;
#199 = DIRECTION ( 'NONE',  ( 0.000000000000000000, -1.224746898548440367E-16, 1.000000000000000000 ) ) ;
#200 = ADVANCED_FACE ( 'NONE', ( #185 ), #24, .F. ) ;
#201 = CARTESIAN_POINT ( 'NONE',  ( -8.036223290544093345, -0.05443465769190515557, 0.05443465769190464210 ) ) ;
#202 = APPLICATION_CONTEXT ( 'configuration controlled 3d designs of mechanical parts and assemblies' ) ;
#203 = CARTESIAN_POINT ( 'NONE',  ( -1.455000000000000737, -0.05443465769190515557, 0.000000000000000000 ) ) ;
#204 = PERSON_AND_ORGANIZATION_ROLE ( 'design_supplier' ) ;
#205 = LOCAL_TIME ( 17, 57, 45.00000000000000000, #87 ) ;
#206 = EDGE_CURVE ( 'NONE', #89, #41, #167, .T. ) ;
#207 = PERSON_AND_ORGANIZATION_ROLE ( 'design_owner' ) ;
#208 = CIRCLE ( 'NONE', #3, 6.750000000000001776 ) ;
#209 = ORIENTED_EDGE ( 'NONE', *, *, #134, .T. ) ;
#210 = EDGE_CURVE ( 'NONE', #73, #89, #198, .T. ) ;
#211 = COORDINATED_UNIVERSAL_TIME_OFFSET ( 8, 0, .AHEAD. ) ;
#212 = CYLINDRICAL_SURFACE ( 'NONE', #84, 1.554434657691905697 ) ;
#213 = EDGE_LOOP ( 'NONE', ( #177, #34, #57, #155 ) ) ;
#214 = APPLICATION_CONTEXT ( 'configuration controlled 3d designs of mechanical parts and assemblies' ) ;
#215 = CIRCLE ( 'NONE', #59, 1.554434657691905697 ) ;
#216 = DIRECTION ( 'NONE',  ( -0.000000000000000000, 1.000000000000000000, 1.224646799147353207E-16 ) ) ;
#217 = CIRCLE ( 'NONE', #178, 1.554434657691905697 ) ;
#218 = EDGE_CURVE ( 'NONE', #22, #171, #121, .T. ) ;
#219 = CARTESIAN_POINT ( 'NONE',  ( 8.036223290544091569, -0.05443465769190515557, 0.000000000000000000 ) ) ;
#220 = PRODUCT_DEFINITION_SHAPE ( 'NONE', 'NONE',  #9 ) ;
#221 = DIRECTION ( 'NONE',  ( -1.000000000000000000, -0.000000000000000000, -0.000000000000000000 ) ) ;
#222 = CARTESIAN_POINT ( 'NONE',  ( 1.286442785368982156, -0.05443465769190242859, 0.000000000000000000 ) ) ;
#223 = AXIS2_PLACEMENT_3D ( 'NONE', #64, #183, #199 ) ;
#224 = MECHANICAL_CONTEXT ( 'NONE', #202, 'mechanical' ) ;
#225 = APPLICATION_PROTOCOL_DEFINITION ( 'international standard', 'config_control_design', 1994, #202 ) ;
#226 = CC_DESIGN_PERSON_AND_ORGANIZATION_ASSIGNMENT ( #65, #135, ( #9 ) ) ;
#227 = CIRCLE ( 'NONE', #125, 6.749999999999999112 ) ;
ENDSEC;
END-ISO-10303-21;
