ISO-10303-21;
HEADER;
FILE_DESCRIPTION (( 'STEP AP214' ),
    '1' );
FILE_NAME ('130071.STEP',
    '2019-07-03T01:34:25',
    ( '' ),
    ( '' ),
    'SwSTEP 2.0',
    'SolidWorks 2016',
    '' );
FILE_SCHEMA (( 'AUTOMOTIVE_DESIGN' ));
ENDSEC;

DATA;
#1 = APPLICATION_PROTOCOL_DEFINITION ( 'draft international standard', 'automotive_design', 1998, #205 ) ;
#2 = DIRECTION ( 'NONE',  ( 0.0000000000000000000, 1.000000000000000000, 0.0000000000000000000 ) ) ;
#3 = FACE_OUTER_BOUND ( 'NONE', #76, .T. ) ;
#4 = EDGE_CURVE ( 'NONE', #164, #188, #105, .T. ) ;
#5 = ADVANCED_FACE ( 'NONE', ( #123 ), #21, .T. ) ;
#6 = VERTEX_POINT ( 'NONE', #10 ) ;
#7 = AXIS2_PLACEMENT_3D ( 'NONE', #194, #27, #46 ) ;
#8 = CIRCLE ( 'NONE', #42, 22.10000000000000100 ) ;
#9 = ORIENTED_EDGE ( 'NONE', *, *, #139, .T. ) ;
#10 = CARTESIAN_POINT ( 'NONE',  ( 45.61329936499092200, 19.73904114919496100, -7.776507174585680300E-016 ) ) ;
#11 = PRODUCT_RELATED_PRODUCT_CATEGORY ( 'part', '', ( #142 ) ) ;
#12 = ORIENTED_EDGE ( 'NONE', *, *, #23, .T. ) ;
#13 = DIRECTION ( 'NONE',  ( 0.0000000000000000000, -1.000000000000000000, -1.224646799147353200E-016 ) ) ;
#14 = CARTESIAN_POINT ( 'NONE',  ( 45.61329936499092200, 26.08904114919495900, 0.0000000000000000000 ) ) ;
#15 = CARTESIAN_POINT ( 'NONE',  ( 71.64522198417998300, 26.08904114919495900, 0.0000000000000000000 ) ) ;
#16 = DIRECTION ( 'NONE',  ( 0.0000000000000000000, 0.0000000000000000000, 1.000000000000000000 ) ) ;
#17 = CIRCLE ( 'NONE', #34, 6.349999999999997900 ) ;
#18 = AXIS2_PLACEMENT_3D ( 'NONE', #24, #152, #71 ) ;
#19 = DIRECTION ( 'NONE',  ( 0.0000000000000000000, 1.224646799147353200E-016, -1.000000000000000000 ) ) ;
#20 = PRESENTATION_STYLE_ASSIGNMENT (( #73 ) ) ;
#21 = CYLINDRICAL_SURFACE ( 'NONE', #39, 6.349999999999997900 ) ;
#22 = EDGE_CURVE ( 'NONE', #84, #199, #170, .T. ) ;
#23 = EDGE_CURVE ( 'NONE', #90, #132, #43, .T. ) ;
#24 = CARTESIAN_POINT ( 'NONE',  ( 50.47714460336903400, 26.08904114919495900, 0.0000000000000000000 ) ) ;
#25 = ORIENTED_EDGE ( 'NONE', *, *, #23, .F. ) ;
#26 = DIRECTION ( 'NONE',  ( 0.0000000000000000000, 0.0000000000000000000, 1.000000000000000000 ) ) ;
#27 = DIRECTION ( 'NONE',  ( 0.0000000000000000000, 0.0000000000000000000, 1.000000000000000000 ) ) ;
#28 = AXIS2_PLACEMENT_3D ( 'NONE', #14, #130, #56 ) ;
#29 = CARTESIAN_POINT ( 'NONE',  ( 71.64522198417998300, 26.08904114919495900, 0.0000000000000000000 ) ) ;
#30 = VECTOR ( 'NONE', #124, 1000.000000000000000 ) ;
#31 = CARTESIAN_POINT ( 'NONE',  ( 50.47714460336903400, 26.08904114919495900, 0.0000000000000000000 ) ) ;
#32 = DIRECTION ( 'NONE',  ( 0.0000000000000000000, 0.0000000000000000000, 1.000000000000000000 ) ) ;
#33 = FILL_AREA_STYLE ('',( #61 ) ) ;
#34 = AXIS2_PLACEMENT_3D ( 'NONE', #149, #231, #32 ) ;
#35 = ORIENTED_EDGE ( 'NONE', *, *, #167, .F. ) ;
#36 = EDGE_CURVE ( 'NONE', #164, #62, #51, .T. ) ;
#37 =( NAMED_UNIT ( * ) SI_UNIT ( $, .STERADIAN. ) SOLID_ANGLE_UNIT ( ) );
#38 = ORIENTED_EDGE ( 'NONE', *, *, #22, .T. ) ;
#39 = AXIS2_PLACEMENT_3D ( 'NONE', #44, #145, #26 ) ;
#40 = PRODUCT_DEFINITION_CONTEXT ( 'detailed design', #205, 'design' ) ;
#41 = ORIENTED_EDGE ( 'NONE', *, *, #176, .F. ) ;
#42 = AXIS2_PLACEMENT_3D ( 'NONE', #29, #109, #13 ) ;
#43 = CIRCLE ( 'NONE', #7, 22.09999999999998700 ) ;
#44 = CARTESIAN_POINT ( 'NONE',  ( 42.44986111413682300, 26.08904114919495900, 0.0000000000000000000 ) ) ;
#45 = CARTESIAN_POINT ( 'NONE',  ( 49.54522198417998200, 26.08904114919495900, 0.0000000000000000000 ) ) ;
#46 = DIRECTION ( 'NONE',  ( 1.000000000000000000, 0.0000000000000000000, 0.0000000000000000000 ) ) ;
#47 = EDGE_CURVE ( 'NONE', #84, #118, #204, .T. ) ;
#48 = CIRCLE ( 'NONE', #155, 6.349999999999997900 ) ;
#49 = DIRECTION ( 'NONE',  ( -1.000000000000000000, -0.0000000000000000000, -0.0000000000000000000 ) ) ;
#50 = CIRCLE ( 'NONE', #28, 6.349999999999997900 ) ;
#51 = CIRCLE ( 'NONE', #193, 6.349999999999997900 ) ;
#52 = DIRECTION ( 'NONE',  ( 0.0000000000000000000, -1.000000000000000000, 0.0000000000000000000 ) ) ;
#53 = PRESENTATION_LAYER_ASSIGNMENT (  '', '', ( #196 ) ) ;
#54 = DIRECTION ( 'NONE',  ( 0.0000000000000000000, 0.0000000000000000000, 1.000000000000000000 ) ) ;
#55 = CYLINDRICAL_SURFACE ( 'NONE', #68, 6.349999999999997900 ) ;
#56 = DIRECTION ( 'NONE',  ( 0.0000000000000000000, 0.0000000000000000000, 1.000000000000000000 ) ) ;
#57 = VERTEX_POINT ( 'NONE', #45 ) ;
#58 = SURFACE_SIDE_STYLE ('',( #210 ) ) ;
#59 = FACE_OUTER_BOUND ( 'NONE', #158, .T. ) ;
#60 = AXIS2_PLACEMENT_3D ( 'NONE', #230, #200, #126 ) ;
#61 = FILL_AREA_STYLE_COLOUR ( '', #82 ) ;
#62 = VERTEX_POINT ( 'NONE', #179 ) ;
#63 =( NAMED_UNIT ( * ) PLANE_ANGLE_UNIT ( ) SI_UNIT ( $, .RADIAN. ) );
#64 = CIRCLE ( 'NONE', #207, 6.349999999999997900 ) ;
#65 = ORIENTED_EDGE ( 'NONE', *, *, #77, .T. ) ;
#66 = AXIS2_PLACEMENT_3D ( 'NONE', #216, #184, #112 ) ;
#67 = DIRECTION ( 'NONE',  ( 0.0000000000000000000, 0.0000000000000000000, 1.000000000000000000 ) ) ;
#68 = AXIS2_PLACEMENT_3D ( 'NONE', #70, #87, #91 ) ;
#69 = DIRECTION ( 'NONE',  ( -1.000000000000000000, -0.0000000000000000000, -0.0000000000000000000 ) ) ;
#70 = CARTESIAN_POINT ( 'NONE',  ( 42.44986111413682300, 26.08904114919495900, 0.0000000000000000000 ) ) ;
#71 = DIRECTION ( 'NONE',  ( 0.0000000000000000000, 0.0000000000000000000, 1.000000000000000000 ) ) ;
#72 =( NAMED_UNIT ( * ) PLANE_ANGLE_UNIT ( ) SI_UNIT ( $, .RADIAN. ) );
#73 = SURFACE_STYLE_USAGE ( .BOTH. , #186 ) ;
#74 =( NAMED_UNIT ( * ) SI_UNIT ( $, .STERADIAN. ) SOLID_ANGLE_UNIT ( ) );
#75 = PRODUCT_DEFINITION ( 'Î´Öª', '', #103, #40 ) ;
#76 = EDGE_LOOP ( 'NONE', ( #83, #223, #195, #144 ) ) ;
#77 = EDGE_CURVE ( 'NONE', #188, #132, #64, .T. ) ;
#78 = ADVANCED_BREP_SHAPE_REPRESENTATION ( '130071', ( #222, #100 ), #211 ) ;
#79 = ORIENTED_EDGE ( 'NONE', *, *, #4, .F. ) ;
#80 = PRESENTATION_LAYER_ASSIGNMENT (  '', '', ( #168 ) ) ;
#81 = SHAPE_DEFINITION_REPRESENTATION ( #131, #78 ) ;
#82 = COLOUR_RGB ( '',1.000000000000000000, 1.000000000000000000, 1.000000000000000000 ) ;
#83 = ORIENTED_EDGE ( 'NONE', *, *, #119, .F. ) ;
#84 = VERTEX_POINT ( 'NONE', #228 ) ;
#85 = AXIS2_PLACEMENT_3D ( 'NONE', #172, #19, #217 ) ;
#86 = CARTESIAN_POINT ( 'NONE',  ( 50.47714460336903400, 26.08904114919495900, 6.349999999999997900 ) ) ;
#87 = DIRECTION ( 'NONE',  ( -1.000000000000000000, -0.0000000000000000000, -0.0000000000000000000 ) ) ;
#88 = FACE_OUTER_BOUND ( 'NONE', #192, .T. ) ;
#89 = CARTESIAN_POINT ( 'NONE',  ( 0.0000000000000000000, 0.0000000000000000000, 0.0000000000000000000 ) ) ;
#90 = VERTEX_POINT ( 'NONE', #202 ) ;
#91 = DIRECTION ( 'NONE',  ( 0.0000000000000000000, 0.0000000000000000000, 1.000000000000000000 ) ) ;
#92 = DIRECTION ( 'NONE',  ( 0.0000000000000000000, -1.000000000000000000, 0.0000000000000000000 ) ) ;
#93 = EDGE_CURVE ( 'NONE', #199, #6, #17, .T. ) ;
#94 = PRODUCT_CONTEXT ( 'NONE', #154, 'mechanical' ) ;
#95 = APPLICATION_PROTOCOL_DEFINITION ( 'draft international standard', 'automotive_design', 1998, #154 ) ;
#96 = ORIENTED_EDGE ( 'NONE', *, *, #119, .T. ) ;
#97 = ADVANCED_FACE ( 'NONE', ( #59 ), #108, .F. ) ;
#98 = UNCERTAINTY_MEASURE_WITH_UNIT (LENGTH_MEASURE( 1.000000000000000100E-005 ), #156, 'distance_accuracy_value', 'NONE');
#99 = ORIENTED_EDGE ( 'NONE', *, *, #47, .F. ) ;
#100 = AXIS2_PLACEMENT_3D ( 'NONE', #89, #206, #114 ) ;
#101 = CIRCLE ( 'NONE', #225, 6.349999999999997900 ) ;
#102 = ORIENTED_EDGE ( 'NONE', *, *, #111, .F. ) ;
#103 = PRODUCT_DEFINITION_FORMATION_WITH_SPECIFIED_SOURCE ( 'ÈÎºÎ', '', #142, .NOT_KNOWN. ) ;
#104 = EDGE_CURVE ( 'NONE', #118, #164, #101, .T. ) ;
#105 = LINE ( 'NONE', #125, #148 ) ;
#106 = PRESENTATION_STYLE_ASSIGNMENT (( #218 ) ) ;
#107 = DIRECTION ( 'NONE',  ( 0.0000000000000000000, 0.0000000000000000000, 1.000000000000000000 ) ) ;
#108 = SPHERICAL_SURFACE ( 'NONE', #138, 22.10000000000000100 ) ;
#109 = DIRECTION ( 'NONE',  ( 0.0000000000000000000, -1.224646799147353200E-016, 1.000000000000000000 ) ) ;
#110 = CARTESIAN_POINT ( 'NONE',  ( 45.61329936499092200, 26.08904114919495900, -6.349999999999997900 ) ) ;
#111 = EDGE_CURVE ( 'NONE', #6, #188, #50, .T. ) ;
#112 = DIRECTION ( 'NONE',  ( 0.0000000000000000000, 1.000000000000000000, 0.0000000000000000000 ) ) ;
#113 = ORIENTED_EDGE ( 'NONE', *, *, #4, .T. ) ;
#114 = DIRECTION ( 'NONE',  ( 1.000000000000000000, 0.0000000000000000000, 0.0000000000000000000 ) ) ;
#115 = CARTESIAN_POINT ( 'NONE',  ( 24.44522198417998400, 26.08904114919494800, 0.0000000000000000000 ) ) ;
#116 = MECHANICAL_DESIGN_GEOMETRIC_PRESENTATION_REPRESENTATION (  '', ( #196 ), #213 ) ;
#117 =( NAMED_UNIT ( * ) SI_UNIT ( $, .STERADIAN. ) SOLID_ANGLE_UNIT ( ) );
#118 = VERTEX_POINT ( 'NONE', #127 ) ;
#119 = EDGE_CURVE ( 'NONE', #62, #57, #8, .T. ) ;
#120 = SPHERICAL_SURFACE ( 'NONE', #174, 22.09999999999999100 ) ;
#121 = MECHANICAL_DESIGN_GEOMETRIC_PRESENTATION_REPRESENTATION (  '', ( #168 ), #214 ) ;
#122 = CIRCLE ( 'NONE', #60, 22.10000000000000100 ) ;
#123 = FACE_OUTER_BOUND ( 'NONE', #227, .T. ) ;
#124 = DIRECTION ( 'NONE',  ( -1.000000000000000000, -0.0000000000000000000, -0.0000000000000000000 ) ) ;
#125 = CARTESIAN_POINT ( 'NONE',  ( 42.44986111413682300, 26.08904114919495900, 6.349999999999997900 ) ) ;
#126 = DIRECTION ( 'NONE',  ( -1.000000000000000000, 0.0000000000000000000, 0.0000000000000000000 ) ) ;
#127 = CARTESIAN_POINT ( 'NONE',  ( 50.47714460336903400, 19.73904114919495400, 0.0000000000000000000 ) ) ;
#128 = ORIENTED_EDGE ( 'NONE', *, *, #36, .T. ) ;
#129 = CARTESIAN_POINT ( 'NONE',  ( 45.61329936499092200, 26.08904114919495900, 0.0000000000000000000 ) ) ;
#130 = DIRECTION ( 'NONE',  ( -1.000000000000000000, -0.0000000000000000000, -0.0000000000000000000 ) ) ;
#131 = PRODUCT_DEFINITION_SHAPE ( 'NONE', 'NONE',  #75 ) ;
#132 = VERTEX_POINT ( 'NONE', #166 ) ;
#133 = DIRECTION ( 'NONE',  ( 0.0000000000000000000, 0.0000000000000000000, -1.000000000000000000 ) ) ;
#134 =( NAMED_UNIT ( * ) PLANE_ANGLE_UNIT ( ) SI_UNIT ( $, .RADIAN. ) );
#135 = ORIENTED_EDGE ( 'NONE', *, *, #104, .T. ) ;
#136 = ADVANCED_FACE ( 'NONE', ( #159 ), #220, .F. ) ;
#137 = ORIENTED_EDGE ( 'NONE', *, *, #139, .F. ) ;
#138 = AXIS2_PLACEMENT_3D ( 'NONE', #15, #16, #92 ) ;
#139 = EDGE_CURVE ( 'NONE', #62, #84, #224, .T. ) ;
#140 = ORIENTED_EDGE ( 'NONE', *, *, #229, .T. ) ;
#141 = DIRECTION ( 'NONE',  ( -1.000000000000000000, -0.0000000000000000000, -0.0000000000000000000 ) ) ;
#142 = PRODUCT ( '130071', '130071', '', ( #94 ) ) ;
#143 = UNCERTAINTY_MEASURE_WITH_UNIT (LENGTH_MEASURE( 1.000000000000000100E-005 ), #219, 'distance_accuracy_value', 'NONE');
#144 = ORIENTED_EDGE ( 'NONE', *, *, #167, .T. ) ;
#145 = DIRECTION ( 'NONE',  ( -1.000000000000000000, -0.0000000000000000000, -0.0000000000000000000 ) ) ;
#146 = CARTESIAN_POINT ( 'NONE',  ( 50.47714460336903400, 26.08904114919495900, 0.0000000000000000000 ) ) ;
#147 = CARTESIAN_POINT ( 'NONE',  ( 45.61329936499092200, 26.08904114919495900, 6.349999999999997900 ) ) ;
#148 = VECTOR ( 'NONE', #165, 1000.000000000000000 ) ;
#149 = CARTESIAN_POINT ( 'NONE',  ( 45.61329936499092200, 26.08904114919495900, 0.0000000000000000000 ) ) ;
#150 = DIRECTION ( 'NONE',  ( 0.0000000000000000000, 0.0000000000000000000, 1.000000000000000000 ) ) ;
#151 = SURFACE_STYLE_FILL_AREA ( #187 ) ;
#152 = DIRECTION ( 'NONE',  ( -1.000000000000000000, -0.0000000000000000000, -0.0000000000000000000 ) ) ;
#153 = ORIENTED_EDGE ( 'NONE', *, *, #111, .T. ) ;
#154 = APPLICATION_CONTEXT ( 'automotive_design' ) ;
#155 = AXIS2_PLACEMENT_3D ( 'NONE', #215, #69, #198 ) ;
#156 =( LENGTH_UNIT ( ) NAMED_UNIT ( * ) SI_UNIT ( .MILLI., .METRE. ) );
#157 =( LENGTH_UNIT ( ) NAMED_UNIT ( * ) SI_UNIT ( .MILLI., .METRE. ) );
#158 = EDGE_LOOP ( 'NONE', ( #137, #96, #35, #99 ) ) ;
#159 = FACE_OUTER_BOUND ( 'NONE', #175, .T. ) ;
#160 = ORIENTED_EDGE ( 'NONE', *, *, #229, .F. ) ;
#161 = AXIS2_PLACEMENT_3D ( 'NONE', #180, #107, #52 ) ;
#162 = FACE_OUTER_BOUND ( 'NONE', #178, .T. ) ;
#163 = CARTESIAN_POINT ( 'NONE',  ( 42.44986111413682300, 26.08904114919495900, -6.349999999999997900 ) ) ;
#164 = VERTEX_POINT ( 'NONE', #86 ) ;
#165 = DIRECTION ( 'NONE',  ( -1.000000000000000000, -0.0000000000000000000, -0.0000000000000000000 ) ) ;
#166 = CARTESIAN_POINT ( 'NONE',  ( 45.61329936499092200, 32.43904114919494900, 0.0000000000000000000 ) ) ;
#167 = EDGE_CURVE ( 'NONE', #118, #57, #122, .T. ) ;
#168 = STYLED_ITEM ( 'NONE', ( #20 ), #78 ) ;
#169 = DIRECTION ( 'NONE',  ( -1.000000000000000000, -0.0000000000000000000, -0.0000000000000000000 ) ) ;
#170 = LINE ( 'NONE', #163, #30 ) ;
#171 = SPHERICAL_SURFACE ( 'NONE', #161, 22.10000000000000100 ) ;
#172 = CARTESIAN_POINT ( 'NONE',  ( 24.44522198417998400, 26.08904114919494800, 0.0000000000000000000 ) ) ;
#173 = FILL_AREA_STYLE_COLOUR ( '', #201 ) ;
#174 = AXIS2_PLACEMENT_3D ( 'NONE', #115, #133, #2 ) ;
#175 = EDGE_LOOP ( 'NONE', ( #25, #140, #153, #65 ) ) ;
#176 = EDGE_CURVE ( 'NONE', #132, #199, #48, .T. ) ;
#177 = CIRCLE ( 'NONE', #85, 22.09999999999998700 ) ;
#178 = EDGE_LOOP ( 'NONE', ( #9, #38, #41, #191, #79, #128 ) ) ;
#179 = CARTESIAN_POINT ( 'NONE',  ( 50.47714460336903400, 32.43904114919496400, 7.776507174585698100E-016 ) ) ;
#180 = CARTESIAN_POINT ( 'NONE',  ( 71.64522198417998300, 26.08904114919495900, 0.0000000000000000000 ) ) ;
#181 = DIRECTION ( 'NONE',  ( -1.000000000000000000, -0.0000000000000000000, -0.0000000000000000000 ) ) ;
#182 = ORIENTED_EDGE ( 'NONE', *, *, #93, .T. ) ;
#183 = DIRECTION ( 'NONE',  ( 0.0000000000000000000, 0.0000000000000000000, 1.000000000000000000 ) ) ;
#184 = DIRECTION ( 'NONE',  ( 0.0000000000000000000, 0.0000000000000000000, -1.000000000000000000 ) ) ;
#185 = CLOSED_SHELL ( 'NONE', ( #208, #97, #136, #209, #189, #5 ) ) ;
#186 = SURFACE_SIDE_STYLE ('',( #151 ) ) ;
#187 = FILL_AREA_STYLE ('',( #173 ) ) ;
#188 = VERTEX_POINT ( 'NONE', #147 ) ;
#189 = ADVANCED_FACE ( 'NONE', ( #3 ), #171, .F. ) ;
#190 = AXIS2_PLACEMENT_3D ( 'NONE', #31, #169, #54 ) ;
#191 = ORIENTED_EDGE ( 'NONE', *, *, #77, .F. ) ;
#192 = EDGE_LOOP ( 'NONE', ( #160, #12, #203, #182 ) ) ;
#193 = AXIS2_PLACEMENT_3D ( 'NONE', #146, #141, #67 ) ;
#194 = CARTESIAN_POINT ( 'NONE',  ( 24.44522198417998400, 26.08904114919494800, 0.0000000000000000000 ) ) ;
#195 = ORIENTED_EDGE ( 'NONE', *, *, #104, .F. ) ;
#196 = STYLED_ITEM ( 'NONE', ( #106 ), #222 ) ;
#197 = UNCERTAINTY_MEASURE_WITH_UNIT (LENGTH_MEASURE( 1.000000000000000100E-005 ), #157, 'distance_accuracy_value', 'NONE');
#198 = DIRECTION ( 'NONE',  ( 0.0000000000000000000, 0.0000000000000000000, 1.000000000000000000 ) ) ;
#199 = VERTEX_POINT ( 'NONE', #110 ) ;
#200 = DIRECTION ( 'NONE',  ( 0.0000000000000000000, 0.0000000000000000000, -1.000000000000000000 ) ) ;
#201 = COLOUR_RGB ( '',1.000000000000000000, 1.000000000000000000, 1.000000000000000000 ) ;
#202 = CARTESIAN_POINT ( 'NONE',  ( 46.54522198417997500, 26.08904114919494800, 0.0000000000000000000 ) ) ;
#203 = ORIENTED_EDGE ( 'NONE', *, *, #176, .T. ) ;
#204 = CIRCLE ( 'NONE', #18, 6.349999999999997900 ) ;
#205 = APPLICATION_CONTEXT ( 'automotive_design' ) ;
#206 = DIRECTION ( 'NONE',  ( 0.0000000000000000000, 0.0000000000000000000, 1.000000000000000000 ) ) ;
#207 = AXIS2_PLACEMENT_3D ( 'NONE', #129, #181, #183 ) ;
#208 = ADVANCED_FACE ( 'NONE', ( #162 ), #55, .T. ) ;
#209 = ADVANCED_FACE ( 'NONE', ( #88 ), #120, .F. ) ;
#210 = SURFACE_STYLE_FILL_AREA ( #33 ) ;
#211 =( GEOMETRIC_REPRESENTATION_CONTEXT ( 3 ) GLOBAL_UNCERTAINTY_ASSIGNED_CONTEXT ( ( #143 ) ) GLOBAL_UNIT_ASSIGNED_CONTEXT ( ( #219, #63, #37 ) ) REPRESENTATION_CONTEXT ( 'NONE', 'WORKASPACE' ) );
#212 = ORIENTED_EDGE ( 'NONE', *, *, #93, .F. ) ;
#213 =( GEOMETRIC_REPRESENTATION_CONTEXT ( 3 ) GLOBAL_UNCERTAINTY_ASSIGNED_CONTEXT ( ( #197 ) ) GLOBAL_UNIT_ASSIGNED_CONTEXT ( ( #157, #72, #117 ) ) REPRESENTATION_CONTEXT ( 'NONE', 'WORKASPACE' ) );
#214 =( GEOMETRIC_REPRESENTATION_CONTEXT ( 3 ) GLOBAL_UNCERTAINTY_ASSIGNED_CONTEXT ( ( #98 ) ) GLOBAL_UNIT_ASSIGNED_CONTEXT ( ( #156, #134, #74 ) ) REPRESENTATION_CONTEXT ( 'NONE', 'WORKASPACE' ) );
#215 = CARTESIAN_POINT ( 'NONE',  ( 45.61329936499092200, 26.08904114919495900, 0.0000000000000000000 ) ) ;
#216 = CARTESIAN_POINT ( 'NONE',  ( 24.44522198417998400, 26.08904114919494800, 0.0000000000000000000 ) ) ;
#217 = DIRECTION ( 'NONE',  ( 0.0000000000000000000, 1.000000000000000000, 1.224646799147353500E-016 ) ) ;
#218 = SURFACE_STYLE_USAGE ( .BOTH. , #58 ) ;
#219 =( LENGTH_UNIT ( ) NAMED_UNIT ( * ) SI_UNIT ( .MILLI., .METRE. ) );
#220 = SPHERICAL_SURFACE ( 'NONE', #66, 22.09999999999999100 ) ;
#221 = ORIENTED_EDGE ( 'NONE', *, *, #22, .F. ) ;
#222 = MANIFOLD_SOLID_BREP ( 'Ðý×ª1', #185 ) ;
#223 = ORIENTED_EDGE ( 'NONE', *, *, #36, .F. ) ;
#224 = CIRCLE ( 'NONE', #190, 6.349999999999997900 ) ;
#225 = AXIS2_PLACEMENT_3D ( 'NONE', #232, #49, #150 ) ;
#226 = ORIENTED_EDGE ( 'NONE', *, *, #47, .T. ) ;
#227 = EDGE_LOOP ( 'NONE', ( #221, #226, #135, #113, #102, #212 ) ) ;
#228 = CARTESIAN_POINT ( 'NONE',  ( 50.47714460336903400, 26.08904114919495900, -6.349999999999997900 ) ) ;
#229 = EDGE_CURVE ( 'NONE', #90, #6, #177, .T. ) ;
#230 = CARTESIAN_POINT ( 'NONE',  ( 71.64522198417998300, 26.08904114919495900, 0.0000000000000000000 ) ) ;
#231 = DIRECTION ( 'NONE',  ( -1.000000000000000000, -0.0000000000000000000, -0.0000000000000000000 ) ) ;
#232 = CARTESIAN_POINT ( 'NONE',  ( 50.47714460336903400, 26.08904114919495900, 0.0000000000000000000 ) ) ;
ENDSEC;
END-ISO-10303-21;
