ISO-10303-21;
HEADER;
FILE_DESCRIPTION (( 'STEP AP214' ),
    '1' );
FILE_NAME ('130059.STEP',
    '2019-07-02T06:11:51',
    ( '' ),
    ( '' ),
    'SwSTEP 2.0',
    'SolidWorks 2016',
    '' );
FILE_SCHEMA (( 'AUTOMOTIVE_DESIGN' ));
ENDSEC;

DATA;
#1 = VERTEX_POINT ( 'NONE', #21 ) ;
#2 = VERTEX_POINT ( 'NONE', #159 ) ;
#3 =( GEOMETRIC_REPRESENTATION_CONTEXT ( 3 ) GLOBAL_UNCERTAINTY_ASSIGNED_CONTEXT ( ( #136 ) ) GLOBAL_UNIT_ASSIGNED_CONTEXT ( ( #146, #75, #166 ) ) REPRESENTATION_CONTEXT ( 'NONE', 'WORKASPACE' ) );
#4 = CIRCLE ( 'NONE', #100, 12.69999999999998900 ) ;
#5 = VECTOR ( 'NONE', #80, 1000.000000000000000 ) ;
#6 = EDGE_LOOP ( 'NONE', ( #158, #54, #145 ) ) ;
#7 = TOROIDAL_SURFACE ( 'NONE', #53, -0.04061993392810714400, 69.59999999999996600 ) ;
#8 = PRODUCT_DEFINITION_CONTEXT ( 'detailed design', #124, 'design' ) ;
#9 = FILL_AREA_STYLE_COLOUR ( '', #172 ) ;
#10 = DIRECTION ( 'NONE',  ( 0.0000000000000000000, 1.224646799147353200E-016, -1.000000000000000000 ) ) ;
#11 = CARTESIAN_POINT ( 'NONE',  ( 48.75270344622933300, 65.22260287298738000, 0.0000000000000000000 ) ) ;
#12 = CARTESIAN_POINT ( 'NONE',  ( 109.9369352260864600, 65.22260287298739500, 0.0000000000000000000 ) ) ;
#13 = DIRECTION ( 'NONE',  ( 0.0000000000000000000, 0.0000000000000000000, -1.000000000000000000 ) ) ;
#14 = AXIS2_PLACEMENT_3D ( 'NONE', #22, #71, #144 ) ;
#15 = CARTESIAN_POINT ( 'NONE',  ( 117.1842020415399500, 65.22260287298739500, 0.0000000000000000000 ) ) ;
#16 = DIRECTION ( 'NONE',  ( 0.0000000000000000000, 0.0000000000000000000, -1.000000000000000000 ) ) ;
#17 = ORIENTED_EDGE ( 'NONE', *, *, #152, .F. ) ;
#18 = CLOSED_SHELL ( 'NONE', ( #89, #24, #186, #203, #134, #149 ) ) ;
#19 = EDGE_CURVE ( 'NONE', #199, #160, #205, .T. ) ;
#20 = UNCERTAINTY_MEASURE_WITH_UNIT (LENGTH_MEASURE( 1.000000000000000100E-005 ), #154, 'distance_accuracy_value', 'NONE');
#21 = CARTESIAN_POINT ( 'NONE',  ( 117.1842020415399500, 65.22260287298739500, 12.69999999999997400 ) ) ;
#22 = CARTESIAN_POINT ( 'NONE',  ( 117.1842020415399500, 65.22260287298739500, 0.0000000000000000000 ) ) ;
#23 = EDGE_CURVE ( 'NONE', #1, #199, #113, .T. ) ;
#24 = ADVANCED_FACE ( 'NONE', ( #122 ), #7, .F. ) ;
#25 = DIRECTION ( 'NONE',  ( -1.000000000000000000, -0.0000000000000000000, -0.0000000000000000000 ) ) ;
#26 = EDGE_CURVE ( 'NONE', #160, #95, #208, .T. ) ;
#27 = CARTESIAN_POINT ( 'NONE',  ( 117.1842020415399500, 65.22260287298739500, 0.0000000000000000000 ) ) ;
#28 = CIRCLE ( 'NONE', #47, 69.59999999999996600 ) ;
#29 =( NAMED_UNIT ( * ) PLANE_ANGLE_UNIT ( ) SI_UNIT ( $, .RADIAN. ) );
#30 = SURFACE_SIDE_STYLE ('',( #181 ) ) ;
#31 = EDGE_CURVE ( 'NONE', #2, #160, #177, .T. ) ;
#32 = AXIS2_PLACEMENT_3D ( 'NONE', #11, #10, #150 ) ;
#33 = ORIENTED_EDGE ( 'NONE', *, *, #210, .F. ) ;
#34 = ORIENTED_EDGE ( 'NONE', *, *, #66, .T. ) ;
#35 = TOROIDAL_SURFACE ( 'NONE', #131, -0.04061993392810714400, 69.59999999999996600 ) ;
#36 = DIRECTION ( 'NONE',  ( 0.0000000000000000000, 0.0000000000000000000, 1.000000000000000000 ) ) ;
#37 = DIRECTION ( 'NONE',  ( 0.0000000000000000000, 0.0000000000000000000, 1.000000000000000000 ) ) ;
#38 = CARTESIAN_POINT ( 'NONE',  ( 117.1842020415399500, 77.92260287298738300, 0.0000000000000000000 ) ) ;
#39 = VERTEX_POINT ( 'NONE', #62 ) ;
#40 =( GEOMETRIC_REPRESENTATION_CONTEXT ( 3 ) GLOBAL_UNCERTAINTY_ASSIGNED_CONTEXT ( ( #119 ) ) GLOBAL_UNIT_ASSIGNED_CONTEXT ( ( #109, #29, #153 ) ) REPRESENTATION_CONTEXT ( 'NONE', 'WORKASPACE' ) );
#41 = SURFACE_STYLE_USAGE ( .BOTH. , #74 ) ;
#42 =( GEOMETRIC_REPRESENTATION_CONTEXT ( 3 ) GLOBAL_UNCERTAINTY_ASSIGNED_CONTEXT ( ( #20 ) ) GLOBAL_UNIT_ASSIGNED_CONTEXT ( ( #154, #64, #207 ) ) REPRESENTATION_CONTEXT ( 'NONE', 'WORKASPACE' ) );
#43 = CYLINDRICAL_SURFACE ( 'NONE', #86, 12.69999999999998200 ) ;
#44 = CARTESIAN_POINT ( 'NONE',  ( 121.8527034462293600, 65.22260287298739500, 0.0000000000000000000 ) ) ;
#45 = LINE ( 'NONE', #97, #5 ) ;
#46 = ORIENTED_EDGE ( 'NONE', *, *, #196, .F. ) ;
#47 = AXIS2_PLACEMENT_3D ( 'NONE', #59, #57, #13 ) ;
#48 = FACE_OUTER_BOUND ( 'NONE', #103, .T. ) ;
#49 = ORIENTED_EDGE ( 'NONE', *, *, #31, .F. ) ;
#50 = COLOUR_RGB ( '',1.000000000000000000, 1.000000000000000000, 1.000000000000000000 ) ;
#51 = EDGE_LOOP ( 'NONE', ( #178, #34, #142, #112 ) ) ;
#52 = MECHANICAL_DESIGN_GEOMETRIC_PRESENTATION_REPRESENTATION (  '', ( #170 ), #40 ) ;
#53 = AXIS2_PLACEMENT_3D ( 'NONE', #162, #25, #36 ) ;
#54 = ORIENTED_EDGE ( 'NONE', *, *, #161, .F. ) ;
#55 = CYLINDRICAL_SURFACE ( 'NONE', #140, 12.69999999999998200 ) ;
#56 = CARTESIAN_POINT ( 'NONE',  ( 109.9369352260864600, 65.22260287298739500, -12.69999999999998200 ) ) ;
#57 = DIRECTION ( 'NONE',  ( 0.0000000000000000000, -1.000000000000000000, 0.0000000000000000000 ) ) ;
#58 = ADVANCED_BREP_SHAPE_REPRESENTATION ( '130059', ( #147, #68 ), #42 ) ;
#59 = CARTESIAN_POINT ( 'NONE',  ( 191.4526915929306500, 65.22260287298739500, -0.04061993392810714400 ) ) ;
#60 = DIRECTION ( 'NONE',  ( 0.0000000000000000000, -1.993935029858399900E-016, 1.000000000000000000 ) ) ;
#61 = EDGE_CURVE ( 'NONE', #2, #189, #157, .T. ) ;
#62 = CARTESIAN_POINT ( 'NONE',  ( 118.3527034462293400, 65.22260287298738000, 0.0000000000000000000 ) ) ;
#63 = EDGE_LOOP ( 'NONE', ( #49, #85, #173, #46, #70 ) ) ;
#64 =( NAMED_UNIT ( * ) PLANE_ANGLE_UNIT ( ) SI_UNIT ( $, .RADIAN. ) );
#65 = SURFACE_STYLE_USAGE ( .BOTH. , #30 ) ;
#66 = EDGE_CURVE ( 'NONE', #39, #199, #94, .T. ) ;
#67 = CIRCLE ( 'NONE', #188, 12.69999999999998900 ) ;
#68 = AXIS2_PLACEMENT_3D ( 'NONE', #194, #190, #96 ) ;
#69 = MECHANICAL_DESIGN_GEOMETRIC_PRESENTATION_REPRESENTATION (  '', ( #128 ), #3 ) ;
#70 = ORIENTED_EDGE ( 'NONE', *, *, #26, .F. ) ;
#71 = DIRECTION ( 'NONE',  ( -1.000000000000000000, -0.0000000000000000000, -0.0000000000000000000 ) ) ;
#72 = DIRECTION ( 'NONE',  ( -0.0000000000000000000, 1.000000000000000000, 1.224646799147353200E-016 ) ) ;
#73 = PRODUCT ( '130059', '130059', '', ( #209 ) ) ;
#74 = SURFACE_SIDE_STYLE ('',( #129 ) ) ;
#75 =( NAMED_UNIT ( * ) PLANE_ANGLE_UNIT ( ) SI_UNIT ( $, .RADIAN. ) );
#76 = ORIENTED_EDGE ( 'NONE', *, *, #31, .T. ) ;
#77 = DIRECTION ( 'NONE',  ( 0.0000000000000000000, 0.0000000000000000000, 1.000000000000000000 ) ) ;
#78 = EDGE_CURVE ( 'NONE', #39, #95, #84, .T. ) ;
#79 = CARTESIAN_POINT ( 'NONE',  ( 48.75270344622933300, 65.22260287298738000, 0.0000000000000000000 ) ) ;
#80 = DIRECTION ( 'NONE',  ( -1.000000000000000000, -0.0000000000000000000, -0.0000000000000000000 ) ) ;
#81 = PRODUCT_DEFINITION ( 'Î´Öª', '', #120, #8 ) ;
#82 = AXIS2_PLACEMENT_3D ( 'NONE', #168, #171, #192 ) ;
#83 = ORIENTED_EDGE ( 'NONE', *, *, #66, .F. ) ;
#84 = CIRCLE ( 'NONE', #32, 69.59999999999998000 ) ;
#85 = ORIENTED_EDGE ( 'NONE', *, *, #114, .T. ) ;
#86 = AXIS2_PLACEMENT_3D ( 'NONE', #138, #92, #77 ) ;
#87 = PRESENTATION_STYLE_ASSIGNMENT (( #41 ) ) ;
#88 = DIRECTION ( 'NONE',  ( 0.0000000000000000000, 0.0000000000000000000, 1.000000000000000000 ) ) ;
#89 = ADVANCED_FACE ( 'NONE', ( #48 ), #43, .T. ) ;
#90 = CARTESIAN_POINT ( 'NONE',  ( 191.4526915929306500, 65.22260287298739500, 0.04061993392810714400 ) ) ;
#91 = AXIS2_PLACEMENT_3D ( 'NONE', #15, #212, #93 ) ;
#92 = DIRECTION ( 'NONE',  ( -1.000000000000000000, -0.0000000000000000000, -0.0000000000000000000 ) ) ;
#93 = DIRECTION ( 'NONE',  ( 0.0000000000000000000, 0.0000000000000000000, 1.000000000000000000 ) ) ;
#94 = CIRCLE ( 'NONE', #123, 69.59999999999999400 ) ;
#95 = VERTEX_POINT ( 'NONE', #202 ) ;
#96 = DIRECTION ( 'NONE',  ( 1.000000000000000000, 0.0000000000000000000, 0.0000000000000000000 ) ) ;
#97 = CARTESIAN_POINT ( 'NONE',  ( 109.9369352260864600, 65.22260287298739500, 12.69999999999998200 ) ) ;
#98 = SPHERICAL_SURFACE ( 'NONE', #200, 69.59999999999999400 ) ;
#99 = SHAPE_DEFINITION_REPRESENTATION ( #156, #58 ) ;
#100 = AXIS2_PLACEMENT_3D ( 'NONE', #169, #104, #201 ) ;
#101 = FACE_OUTER_BOUND ( 'NONE', #198, .T. ) ;
#102 = AXIS2_PLACEMENT_3D ( 'NONE', #204, #135, #88 ) ;
#103 = EDGE_LOOP ( 'NONE', ( #179, #76, #127, #133, #33 ) ) ;
#104 = DIRECTION ( 'NONE',  ( -1.000000000000000000, -0.0000000000000000000, -0.0000000000000000000 ) ) ;
#105 = CARTESIAN_POINT ( 'NONE',  ( 117.1842020415399500, 65.22260287298739500, -12.69999999999997400 ) ) ;
#106 = ORIENTED_EDGE ( 'NONE', *, *, #23, .T. ) ;
#107 = CIRCLE ( 'NONE', #91, 12.69999999999997400 ) ;
#108 = APPLICATION_PROTOCOL_DEFINITION ( 'draft international standard', 'automotive_design', 1998, #110 ) ;
#109 =( LENGTH_UNIT ( ) NAMED_UNIT ( * ) SI_UNIT ( .MILLI., .METRE. ) );
#110 = APPLICATION_CONTEXT ( 'automotive_design' ) ;
#111 = AXIS2_PLACEMENT_3D ( 'NONE', #90, #72, #60 ) ;
#112 = ORIENTED_EDGE ( 'NONE', *, *, #26, .T. ) ;
#113 = CIRCLE ( 'NONE', #141, 12.69999999999997400 ) ;
#114 = EDGE_CURVE ( 'NONE', #2, #195, #4, .T. ) ;
#115 = FACE_OUTER_BOUND ( 'NONE', #6, .T. ) ;
#116 = DIRECTION ( 'NONE',  ( -1.000000000000000000, -0.0000000000000000000, -0.0000000000000000000 ) ) ;
#117 = CARTESIAN_POINT ( 'NONE',  ( 191.4526915929306500, 65.22260287298739500, 0.0000000000000000000 ) ) ;
#118 = DIRECTION ( 'NONE',  ( -1.000000000000000000, -0.0000000000000000000, -0.0000000000000000000 ) ) ;
#119 = UNCERTAINTY_MEASURE_WITH_UNIT (LENGTH_MEASURE( 1.000000000000000100E-005 ), #109, 'distance_accuracy_value', 'NONE');
#120 = PRODUCT_DEFINITION_FORMATION_WITH_SPECIFIED_SOURCE ( 'ÈÎºÎ', '', #73, .NOT_KNOWN. ) ;
#121 = DIRECTION ( 'NONE',  ( 0.0000000000000000000, 0.0000000000000000000, 1.000000000000000000 ) ) ;
#122 = FACE_OUTER_BOUND ( 'NONE', #137, .T. ) ;
#123 = AXIS2_PLACEMENT_3D ( 'NONE', #187, #37, #184 ) ;
#124 = APPLICATION_CONTEXT ( 'automotive_design' ) ;
#125 = FILL_AREA_STYLE ('',( #126 ) ) ;
#126 = FILL_AREA_STYLE_COLOUR ( '', #50 ) ;
#127 = ORIENTED_EDGE ( 'NONE', *, *, #19, .F. ) ;
#128 = STYLED_ITEM ( 'NONE', ( #87 ), #147 ) ;
#129 = SURFACE_STYLE_FILL_AREA ( #148 ) ;
#130 = ORIENTED_EDGE ( 'NONE', *, *, #196, .T. ) ;
#131 = AXIS2_PLACEMENT_3D ( 'NONE', #117, #118, #151 ) ;
#132 = VECTOR ( 'NONE', #164, 1000.000000000000000 ) ;
#133 = ORIENTED_EDGE ( 'NONE', *, *, #23, .F. ) ;
#134 = ADVANCED_FACE ( 'NONE', ( #115 ), #35, .F. ) ;
#135 = DIRECTION ( 'NONE',  ( -1.000000000000000000, -0.0000000000000000000, -0.0000000000000000000 ) ) ;
#136 = UNCERTAINTY_MEASURE_WITH_UNIT (LENGTH_MEASURE( 1.000000000000000100E-005 ), #146, 'distance_accuracy_value', 'NONE');
#137 = EDGE_LOOP ( 'NONE', ( #167, #182, #17 ) ) ;
#138 = CARTESIAN_POINT ( 'NONE',  ( 109.9369352260864600, 65.22260287298739500, 0.0000000000000000000 ) ) ;
#139 = APPLICATION_PROTOCOL_DEFINITION ( 'draft international standard', 'automotive_design', 1998, #124 ) ;
#140 = AXIS2_PLACEMENT_3D ( 'NONE', #12, #185, #121 ) ;
#141 = AXIS2_PLACEMENT_3D ( 'NONE', #27, #116, #165 ) ;
#142 = ORIENTED_EDGE ( 'NONE', *, *, #19, .T. ) ;
#143 = SPHERICAL_SURFACE ( 'NONE', #82, 69.59999999999999400 ) ;
#144 = DIRECTION ( 'NONE',  ( 0.0000000000000000000, 0.0000000000000000000, 1.000000000000000000 ) ) ;
#145 = ORIENTED_EDGE ( 'NONE', *, *, #152, .T. ) ;
#146 =( LENGTH_UNIT ( ) NAMED_UNIT ( * ) SI_UNIT ( .MILLI., .METRE. ) );
#147 = MANIFOLD_SOLID_BREP ( 'Ðý×ª1', #18 ) ;
#148 = FILL_AREA_STYLE ('',( #9 ) ) ;
#149 = ADVANCED_FACE ( 'NONE', ( #191 ), #55, .T. ) ;
#150 = DIRECTION ( 'NONE',  ( 0.0000000000000000000, 1.000000000000000000, 1.224646799147353500E-016 ) ) ;
#151 = DIRECTION ( 'NONE',  ( 0.0000000000000000000, 0.0000000000000000000, 1.000000000000000000 ) ) ;
#152 = EDGE_CURVE ( 'NONE', #195, #189, #28, .T. ) ;
#153 =( NAMED_UNIT ( * ) SI_UNIT ( $, .STERADIAN. ) SOLID_ANGLE_UNIT ( ) );
#154 =( LENGTH_UNIT ( ) NAMED_UNIT ( * ) SI_UNIT ( .MILLI., .METRE. ) );
#155 = ORIENTED_EDGE ( 'NONE', *, *, #78, .T. ) ;
#156 = PRODUCT_DEFINITION_SHAPE ( 'NONE', 'NONE',  #81 ) ;
#157 = CIRCLE ( 'NONE', #111, 69.59999999999996600 ) ;
#158 = ORIENTED_EDGE ( 'NONE', *, *, #61, .F. ) ;
#159 = CARTESIAN_POINT ( 'NONE',  ( 123.0287440036605100, 65.22260287298739500, -12.69999999999999200 ) ) ;
#160 = VERTEX_POINT ( 'NONE', #105 ) ;
#161 = EDGE_CURVE ( 'NONE', #195, #2, #67, .T. ) ;
#162 = CARTESIAN_POINT ( 'NONE',  ( 191.4526915929306500, 65.22260287298739500, 0.0000000000000000000 ) ) ;
#163 = FACE_OUTER_BOUND ( 'NONE', #51, .T. ) ;
#164 = DIRECTION ( 'NONE',  ( -1.000000000000000000, -0.0000000000000000000, -0.0000000000000000000 ) ) ;
#165 = DIRECTION ( 'NONE',  ( 0.0000000000000000000, 0.0000000000000000000, 1.000000000000000000 ) ) ;
#166 =( NAMED_UNIT ( * ) SI_UNIT ( $, .STERADIAN. ) SOLID_ANGLE_UNIT ( ) );
#167 = ORIENTED_EDGE ( 'NONE', *, *, #114, .F. ) ;
#168 = CARTESIAN_POINT ( 'NONE',  ( 48.75270344622933300, 65.22260287298738000, 0.0000000000000000000 ) ) ;
#169 = CARTESIAN_POINT ( 'NONE',  ( 123.0287440036604900, 65.22260287298739500, 0.0000000000000000000 ) ) ;
#170 = STYLED_ITEM ( 'NONE', ( #180 ), #58 ) ;
#171 = DIRECTION ( 'NONE',  ( 0.0000000000000000000, 0.0000000000000000000, -1.000000000000000000 ) ) ;
#172 = COLOUR_RGB ( '',1.000000000000000000, 1.000000000000000000, 1.000000000000000000 ) ;
#173 = ORIENTED_EDGE ( 'NONE', *, *, #210, .T. ) ;
#174 = DIRECTION ( 'NONE',  ( 0.0000000000000000000, 0.0000000000000000000, 1.000000000000000000 ) ) ;
#175 = CARTESIAN_POINT ( 'NONE',  ( 123.0287440036604900, 65.22260287298739500, 0.0000000000000000000 ) ) ;
#176 = PRESENTATION_LAYER_ASSIGNMENT (  '', '', ( #128 ) ) ;
#177 = LINE ( 'NONE', #56, #132 ) ;
#178 = ORIENTED_EDGE ( 'NONE', *, *, #78, .F. ) ;
#179 = ORIENTED_EDGE ( 'NONE', *, *, #161, .T. ) ;
#180 = PRESENTATION_STYLE_ASSIGNMENT (( #65 ) ) ;
#181 = SURFACE_STYLE_FILL_AREA ( #125 ) ;
#182 = ORIENTED_EDGE ( 'NONE', *, *, #61, .T. ) ;
#183 = PRESENTATION_LAYER_ASSIGNMENT (  '', '', ( #170 ) ) ;
#184 = DIRECTION ( 'NONE',  ( 1.000000000000000000, 0.0000000000000000000, 0.0000000000000000000 ) ) ;
#185 = DIRECTION ( 'NONE',  ( -1.000000000000000000, -0.0000000000000000000, -0.0000000000000000000 ) ) ;
#186 = ADVANCED_FACE ( 'NONE', ( #101 ), #143, .F. ) ;
#187 = CARTESIAN_POINT ( 'NONE',  ( 48.75270344622933300, 65.22260287298738000, 0.0000000000000000000 ) ) ;
#188 = AXIS2_PLACEMENT_3D ( 'NONE', #175, #193, #174 ) ;
#189 = VERTEX_POINT ( 'NONE', #44 ) ;
#190 = DIRECTION ( 'NONE',  ( 0.0000000000000000000, 0.0000000000000000000, 1.000000000000000000 ) ) ;
#191 = FACE_OUTER_BOUND ( 'NONE', #63, .T. ) ;
#192 = DIRECTION ( 'NONE',  ( 0.0000000000000000000, 1.000000000000000000, 0.0000000000000000000 ) ) ;
#193 = DIRECTION ( 'NONE',  ( -1.000000000000000000, -0.0000000000000000000, -0.0000000000000000000 ) ) ;
#194 = CARTESIAN_POINT ( 'NONE',  ( 0.0000000000000000000, 0.0000000000000000000, 0.0000000000000000000 ) ) ;
#195 = VERTEX_POINT ( 'NONE', #211 ) ;
#196 = EDGE_CURVE ( 'NONE', #95, #1, #107, .T. ) ;
#197 = PRODUCT_RELATED_PRODUCT_CATEGORY ( 'part', '', ( #73 ) ) ;
#198 = EDGE_LOOP ( 'NONE', ( #83, #155, #130, #106 ) ) ;
#199 = VERTEX_POINT ( 'NONE', #38 ) ;
#200 = AXIS2_PLACEMENT_3D ( 'NONE', #79, #16, #206 ) ;
#201 = DIRECTION ( 'NONE',  ( 0.0000000000000000000, 0.0000000000000000000, 1.000000000000000000 ) ) ;
#202 = CARTESIAN_POINT ( 'NONE',  ( 117.1842020415399500, 52.52260287298739200, -1.555301434917136700E-015 ) ) ;
#203 = ADVANCED_FACE ( 'NONE', ( #163 ), #98, .F. ) ;
#204 = CARTESIAN_POINT ( 'NONE',  ( 117.1842020415399500, 65.22260287298739500, 0.0000000000000000000 ) ) ;
#205 = CIRCLE ( 'NONE', #14, 12.69999999999997400 ) ;
#206 = DIRECTION ( 'NONE',  ( 0.0000000000000000000, 1.000000000000000000, 0.0000000000000000000 ) ) ;
#207 =( NAMED_UNIT ( * ) SI_UNIT ( $, .STERADIAN. ) SOLID_ANGLE_UNIT ( ) );
#208 = CIRCLE ( 'NONE', #102, 12.69999999999997400 ) ;
#209 = PRODUCT_CONTEXT ( 'NONE', #110, 'mechanical' ) ;
#210 = EDGE_CURVE ( 'NONE', #195, #1, #45, .T. ) ;
#211 = CARTESIAN_POINT ( 'NONE',  ( 123.0287440036605100, 65.22260287298739500, 12.69999999999999200 ) ) ;
#212 = DIRECTION ( 'NONE',  ( -1.000000000000000000, -0.0000000000000000000, -0.0000000000000000000 ) ) ;
ENDSEC;
END-ISO-10303-21;
