ISO-10303-21;
HEADER;
FILE_DESCRIPTION (( 'STEP AP214' ),
    '1' );
FILE_NAME ('GL13-006A-020.STEP',
    '2022-10-25T12:39:11',
    ( '' ),
    ( '' ),
    'SwSTEP 2.0',
    'SolidWorks 2022',
    '' );
FILE_SCHEMA (( 'AUTOMOTIVE_DESIGN' ));
ENDSEC;

DATA;
#1 = DIRECTION ( 'NONE',  ( 0.000000000000000000, -0.000000000000000000, 1.000000000000000000 ) ) ;
#2 =( NAMED_UNIT ( * ) SI_UNIT ( $, .STERADIAN. ) SOLID_ANGLE_UNIT ( ) );
#3 = PRESENTATION_LAYER_ASSIGNMENT (  '', '', ( #117 ) ) ;
#4 = PRESENTATION_LAYER_ASSIGNMENT (  '', '', ( #119 ) ) ;
#5 = EDGE_CURVE ( 'NONE', #200, #79, #193, .T. ) ;
#6 = AXIS2_PLACEMENT_3D ( 'NONE', #213, #27, #104 ) ;
#7 = DIRECTION ( 'NONE',  ( 0.000000000000000000, 0.000000000000000000, -1.000000000000000000 ) ) ;
#8 = CARTESIAN_POINT ( 'NONE',  ( 0.000000000000000000, 0.000000000000000000, 0.2000000000000011768 ) ) ;
#9 = CARTESIAN_POINT ( 'NONE',  ( 0.000000000000000000, 0.000000000000000000, 1.836970198721029934E-16 ) ) ;
#10 = ORIENTED_EDGE ( 'NONE', *, *, #237, .F. ) ;
#11 = EDGE_CURVE ( 'NONE', #77, #72, #68, .T. ) ;
#12 = ORIENTED_EDGE ( 'NONE', *, *, #5, .T. ) ;
#13 = DIRECTION ( 'NONE',  ( -0.7071067811865425767, 0.000000000000000000, -0.7071067811865525687 ) ) ;
#14 = VERTEX_POINT ( 'NONE', #154 ) ;
#15 = CIRCLE ( 'NONE', #241, 2.799999999999998046 ) ;
#16 = DIRECTION ( 'NONE',  ( 0.000000000000000000, 0.000000000000000000, 1.000000000000000000 ) ) ;
#17 = AXIS2_PLACEMENT_3D ( 'NONE', #209, #1, #43 ) ;
#18 = CARTESIAN_POINT ( 'NONE',  ( 2.799999999999998046, 0.000000000000000000, 1.836970198721029934E-16 ) ) ;
#19 = DIRECTION ( 'NONE',  ( 0.000000000000000000, 0.000000000000000000, -1.000000000000000000 ) ) ;
#20 = UNCERTAINTY_MEASURE_WITH_UNIT (LENGTH_MEASURE( 1.000000000000000082E-05 ), #226, 'distance_accuracy_value', 'NONE');
#21 = CARTESIAN_POINT ( 'NONE',  ( 0.000000000000000000, 0.000000000000000000, 1.836970198721029934E-16 ) ) ;
#22 = CONICAL_SURFACE ( 'NONE', #145, 2.845767724403181820, 0.7853981633974412846 ) ;
#23 = DIRECTION ( 'NONE',  ( -1.000000000000000000, 1.224646799147353207E-16, 0.000000000000000000 ) ) ;
#24 = CARTESIAN_POINT ( 'NONE',  ( -2.799999999999998046, 3.551475717527323339E-16, 1.836970198721029934E-16 ) ) ;
#25 = APPLICATION_CONTEXT ( 'automotive_design' ) ;
#26 = EDGE_CURVE ( 'NONE', #72, #178, #53, .T. ) ;
#27 = DIRECTION ( 'NONE',  ( -0.000000000000000000, -0.000000000000000000, 1.000000000000000000 ) ) ;
#28 = DIRECTION ( 'NONE',  ( 1.000000000000000000, 0.000000000000000000, 0.000000000000000000 ) ) ;
#29 = DIRECTION ( 'NONE',  ( -0.000000000000000000, -0.000000000000000000, 1.000000000000000000 ) ) ;
#30 = ORIENTED_EDGE ( 'NONE', *, *, #55, .F. ) ;
#31 = VECTOR ( 'NONE', #214, 1000.000000000000114 ) ;
#32 = ORIENTED_EDGE ( 'NONE', *, *, #90, .T. ) ;
#33 = ORIENTED_EDGE ( 'NONE', *, *, #55, .T. ) ;
#34 = EDGE_CURVE ( 'NONE', #14, #178, #127, .T. ) ;
#35 = EDGE_CURVE ( 'NONE', #77, #79, #234, .T. ) ;
#36 = EDGE_LOOP ( 'NONE', ( #30, #133, #259, #116 ) ) ;
#37 = APPLICATION_PROTOCOL_DEFINITION ( 'draft international standard', 'automotive_design', 1998, #48 ) ;
#38 = CYLINDRICAL_SURFACE ( 'NONE', #249, 3.000000000000000000 ) ;
#39 = AXIS2_PLACEMENT_3D ( 'NONE', #87, #102, #186 ) ;
#40 = FACE_OUTER_BOUND ( 'NONE', #112, .T. ) ;
#41 = EDGE_CURVE ( 'NONE', #79, #178, #136, .T. ) ;
#42 = CYLINDRICAL_SURFACE ( 'NONE', #52, 3.000000000000000000 ) ;
#43 = DIRECTION ( 'NONE',  ( 1.000000000000000000, 0.000000000000000000, 0.000000000000000000 ) ) ;
#44 = ADVANCED_FACE ( 'NONE', ( #57 ), #159, .F. ) ;
#45 = DIRECTION ( 'NONE',  ( 0.000000000000000000, 0.000000000000000000, -1.000000000000000000 ) ) ;
#46 = DIRECTION ( 'NONE',  ( 1.000000000000000000, 0.000000000000000000, 0.000000000000000000 ) ) ;
#47 = CIRCLE ( 'NONE', #114, 2.845767724403182264 ) ;
#48 = APPLICATION_CONTEXT ( 'automotive_design' ) ;
#49 = CARTESIAN_POINT ( 'NONE',  ( 0.000000000000000000, 0.000000000000000000, 1.749999999999998002 ) ) ;
#50 = CARTESIAN_POINT ( 'NONE',  ( 3.000000000000000000, 0.000000000000000000, 1.500000000000000000 ) ) ;
#51 = EDGE_LOOP ( 'NONE', ( #184, #111, #204, #10 ) ) ;
#52 = AXIS2_PLACEMENT_3D ( 'NONE', #248, #82, #190 ) ;
#53 = CIRCLE ( 'NONE', #185, 3.000000000000000000 ) ;
#54 = ORIENTED_EDGE ( 'NONE', *, *, #239, .F. ) ;
#55 = EDGE_CURVE ( 'NONE', #179, #139, #15, .T. ) ;
#56 = EDGE_CURVE ( 'NONE', #179, #96, #222, .T. ) ;
#57 = FACE_OUTER_BOUND ( 'NONE', #100, .T. ) ;
#58 = ORIENTED_EDGE ( 'NONE', *, *, #34, .F. ) ;
#59 = CARTESIAN_POINT ( 'NONE',  ( 0.000000000000000000, 0.000000000000000000, 0.000000000000000000 ) ) ;
#60 = DIRECTION ( 'NONE',  ( -1.000000000000000000, 0.000000000000000000, 0.000000000000000000 ) ) ;
#61 = PRODUCT_RELATED_PRODUCT_CATEGORY ( 'part', '', ( #166 ) ) ;
#62 = CARTESIAN_POINT ( 'NONE',  ( 0.000000000000000000, 0.000000000000000000, 1.904232275596820179 ) ) ;
#63 = CARTESIAN_POINT ( 'NONE',  ( 0.01574819937613159554, -1.928598195831390656E-18, 11.82998799584086846 ) ) ;
#64 = CARTESIAN_POINT ( 'NONE',  ( 3.000000000000000000, 0.000000000000000000, 0.2000000000000011768 ) ) ;
#65 = ADVANCED_FACE ( 'NONE', ( #162 ), #38, .T. ) ;
#66 = AXIS2_PLACEMENT_3D ( 'NONE', #71, #215, #128 ) ;
#67 = DIRECTION ( 'NONE',  ( 1.000000000000000000, 0.000000000000000000, 0.000000000000000000 ) ) ;
#68 = LINE ( 'NONE', #106, #197 ) ;
#69 = EDGE_CURVE ( 'NONE', #14, #96, #170, .T. ) ;
#70 = FILL_AREA_STYLE_COLOUR ( '', #86 ) ;
#71 = CARTESIAN_POINT ( 'NONE',  ( 0.000000000000000000, 0.000000000000000000, 1.904232275596820179 ) ) ;
#72 = VERTEX_POINT ( 'NONE', #195 ) ;
#73 =( GEOMETRIC_REPRESENTATION_CONTEXT ( 3 ) GLOBAL_UNCERTAINTY_ASSIGNED_CONTEXT ( ( #20 ) ) GLOBAL_UNIT_ASSIGNED_CONTEXT ( ( #226, #140, #205 ) ) REPRESENTATION_CONTEXT ( 'NONE', 'WORKASPACE' ) );
#74 = EDGE_LOOP ( 'NONE', ( #54, #12, #160 ) ) ;
#75 = CIRCLE ( 'NONE', #227, 10.33000000000000185 ) ;
#76 = AXIS2_PLACEMENT_3D ( 'NONE', #242, #92, #253 ) ;
#77 = VERTEX_POINT ( 'NONE', #254 ) ;
#78 = PRESENTATION_STYLE_ASSIGNMENT (( #142 ) ) ;
#79 = VERTEX_POINT ( 'NONE', #91 ) ;
#80 = VECTOR ( 'NONE', #29, 1000.000000000000000 ) ;
#81 = PRODUCT_DEFINITION_SHAPE ( 'NONE', 'NONE',  #153 ) ;
#82 = DIRECTION ( 'NONE',  ( -0.000000000000000000, -0.000000000000000000, 1.000000000000000000 ) ) ;
#83 = MANIFOLD_SOLID_BREP ( 'µ¹½Ç2', #218 ) ;
#84 = DIRECTION ( 'NONE',  ( 0.000000000000000000, 0.000000000000000000, -1.000000000000000000 ) ) ;
#85 = CARTESIAN_POINT ( 'NONE',  ( 0.000000000000000000, 0.000000000000000000, 11.82998799584086846 ) ) ;
#86 = COLOUR_RGB ( '',1.000000000000000000, 1.000000000000000000, 1.000000000000000000 ) ;
#87 = CARTESIAN_POINT ( 'NONE',  ( 0.000000000000000000, 0.000000000000000000, 1.904232275596818402 ) ) ;
#88 = VECTOR ( 'NONE', #149, 1000.000000000000114 ) ;
#89 = DIRECTION ( 'NONE',  ( 1.000000000000000000, 0.000000000000000000, 0.000000000000000000 ) ) ;
#90 = EDGE_CURVE ( 'NONE', #139, #14, #252, .T. ) ;
#91 = CARTESIAN_POINT ( 'NONE',  ( 2.845767724403185372, 0.000000000000000000, 1.904232275596820179 ) ) ;
#92 = DIRECTION ( 'NONE',  ( 0.000000000000000000, -1.000000000000000000, 0.000000000000000000 ) ) ;
#93 = ORIENTED_EDGE ( 'NONE', *, *, #41, .T. ) ;
#94 = ADVANCED_FACE ( 'NONE', ( #176 ), #120, .T. ) ;
#95 = ORIENTED_EDGE ( 'NONE', *, *, #137, .T. ) ;
#96 = VERTEX_POINT ( 'NONE', #152 ) ;
#97 = SURFACE_SIDE_STYLE ('',( #135 ) ) ;
#98 = ORIENTED_EDGE ( 'NONE', *, *, #11, .F. ) ;
#99 = SURFACE_SIDE_STYLE ('',( #203 ) ) ;
#100 = EDGE_LOOP ( 'NONE', ( #223, #220, #221 ) ) ;
#101 =( LENGTH_UNIT ( ) NAMED_UNIT ( * ) SI_UNIT ( .MILLI., .METRE. ) );
#102 = DIRECTION ( 'NONE',  ( 0.000000000000000000, 0.000000000000000000, -1.000000000000000000 ) ) ;
#103 = DIRECTION ( 'NONE',  ( 1.000000000000000000, 0.000000000000000000, 0.000000000000000000 ) ) ;
#104 = DIRECTION ( 'NONE',  ( 1.000000000000000000, 0.000000000000000000, 0.000000000000000000 ) ) ;
#105 = FACE_OUTER_BOUND ( 'NONE', #51, .T. ) ;
#106 = CARTESIAN_POINT ( 'NONE',  ( -2.845767724403181820, 0.000000000000000000, 1.904232275596818402 ) ) ;
#107 = ADVANCED_FACE ( 'NONE', ( #40 ), #147, .F. ) ;
#108 = CARTESIAN_POINT ( 'NONE',  ( 2.845767724403181820, 3.485060334807202999E-16, 1.904232275596818402 ) ) ;
#109 = DIRECTION ( 'NONE',  ( 0.000000000000000000, 0.000000000000000000, -1.000000000000000000 ) ) ;
#110 = EDGE_LOOP ( 'NONE', ( #157, #244, #260, #134 ) ) ;
#111 = ORIENTED_EDGE ( 'NONE', *, *, #35, .F. ) ;
#112 = EDGE_LOOP ( 'NONE', ( #95, #33 ) ) ;
#113 = APPLICATION_PROTOCOL_DEFINITION ( 'draft international standard', 'automotive_design', 1998, #25 ) ;
#114 = AXIS2_PLACEMENT_3D ( 'NONE', #62, #208, #232 ) ;
#115 = CARTESIAN_POINT ( 'NONE',  ( 0.000000000000000000, 0.000000000000000000, 1.500000000000000000 ) ) ;
#116 = ORIENTED_EDGE ( 'NONE', *, *, #90, .F. ) ;
#117 = STYLED_ITEM ( 'NONE', ( #78 ), #151 ) ;
#118 = CIRCLE ( 'NONE', #158, 3.000000000000000000 ) ;
#119 = STYLED_ITEM ( 'NONE', ( #212 ), #83 ) ;
#120 = CONICAL_SURFACE ( 'NONE', #251, 3.000000000000000000, 0.7853981633974504994 ) ;
#121 =( NAMED_UNIT ( * ) PLANE_ANGLE_UNIT ( ) SI_UNIT ( $, .RADIAN. ) );
#122 = DIRECTION ( 'NONE',  ( 1.000000000000000000, 0.000000000000000000, 0.000000000000000000 ) ) ;
#123 = AXIS2_PLACEMENT_3D ( 'NONE', #187, #210, #103 ) ;
#124 = DIRECTION ( 'NONE',  ( 1.000000000000000000, 0.000000000000000000, 0.000000000000000000 ) ) ;
#125 = PRODUCT_DEFINITION_FORMATION_WITH_SPECIFIED_SOURCE ( 'ÈÎºÎ', '', #166, .NOT_KNOWN. ) ;
#126 = DIRECTION ( 'NONE',  ( -0.000000000000000000, -0.000000000000000000, 1.000000000000000000 ) ) ;
#127 = LINE ( 'NONE', #50, #80 ) ;
#128 = DIRECTION ( 'NONE',  ( 1.000000000000000000, 0.000000000000000000, 0.000000000000000000 ) ) ;
#129 = ORIENTED_EDGE ( 'NONE', *, *, #26, .F. ) ;
#130 = ORIENTED_EDGE ( 'NONE', *, *, #143, .T. ) ;
#131 = VECTOR ( 'NONE', #216, 999.9999999999998863 ) ;
#132 = UNCERTAINTY_MEASURE_WITH_UNIT (LENGTH_MEASURE( 1.000000000000000082E-05 ), #250, 'distance_accuracy_value', 'NONE');
#133 = ORIENTED_EDGE ( 'NONE', *, *, #56, .T. ) ;
#134 = ORIENTED_EDGE ( 'NONE', *, *, #237, .T. ) ;
#135 = SURFACE_STYLE_FILL_AREA ( #202 ) ;
#136 = LINE ( 'NONE', #108, #131 ) ;
#137 = EDGE_CURVE ( 'NONE', #139, #179, #164, .T. ) ;
#138 = EDGE_CURVE ( 'NONE', #96, #14, #207, .T. ) ;
#139 = VERTEX_POINT ( 'NONE', #18 ) ;
#140 =( NAMED_UNIT ( * ) PLANE_ANGLE_UNIT ( ) SI_UNIT ( $, .RADIAN. ) );
#141 = AXIS2_PLACEMENT_3D ( 'NONE', #85, #169, #122 ) ;
#142 = SURFACE_STYLE_USAGE ( .BOTH. , #97 ) ;
#143 = EDGE_CURVE ( 'NONE', #96, #72, #231, .T. ) ;
#144 = PRODUCT_DEFINITION_CONTEXT ( 'detailed design', #25, 'design' ) ;
#145 = AXIS2_PLACEMENT_3D ( 'NONE', #167, #19, #148 ) ;
#146 = FACE_OUTER_BOUND ( 'NONE', #36, .T. ) ;
#147 = PLANE ( 'NONE',  #17 ) ;
#148 = DIRECTION ( 'NONE',  ( -1.000000000000000000, 0.000000000000000000, 0.000000000000000000 ) ) ;
#149 = DIRECTION ( 'NONE',  ( 0.7071067811865490160, 0.000000000000000000, 0.7071067811865460184 ) ) ;
#150 = AXIS2_PLACEMENT_3D ( 'NONE', #177, #236, #46 ) ;
#151 = ADVANCED_BREP_SHAPE_REPRESENTATION ( 'GL13-006A-020', ( #83, #225 ), #258 ) ;
#152 = CARTESIAN_POINT ( 'NONE',  ( -3.000000000000000000, 3.673940397442059868E-16, 0.2000000000000011768 ) ) ;
#153 = PRODUCT_DEFINITION ( 'Î´Öª', '', #125, #144 ) ;
#154 = CARTESIAN_POINT ( 'NONE',  ( 3.000000000000000000, 0.000000000000000000, 0.2000000000000011768 ) ) ;
#155 = FILL_AREA_STYLE ('',( #70 ) ) ;
#156 = MECHANICAL_DESIGN_GEOMETRIC_PRESENTATION_REPRESENTATION (  '', ( #117 ), #73 ) ;
#157 = ORIENTED_EDGE ( 'NONE', *, *, #143, .F. ) ;
#158 = AXIS2_PLACEMENT_3D ( 'NONE', #247, #84, #60 ) ;
#159 = TOROIDAL_SURFACE ( 'NONE', #150, -0.01574819937613159554, 10.33000000000000185 ) ;
#160 = ORIENTED_EDGE ( 'NONE', *, *, #199, .T. ) ;
#161 = FILL_AREA_STYLE_COLOUR ( '', #192 ) ;
#162 = FACE_OUTER_BOUND ( 'NONE', #217, .T. ) ;
#163 = ORIENTED_EDGE ( 'NONE', *, *, #56, .F. ) ;
#164 = CIRCLE ( 'NONE', #173, 2.799999999999998046 ) ;
#165 = DIRECTION ( 'NONE',  ( 1.000000000000000000, 0.000000000000000000, 0.000000000000000000 ) ) ;
#166 = PRODUCT ( 'GL13-006A-020', 'GL13-006A-020', '', ( #182 ) ) ;
#167 = CARTESIAN_POINT ( 'NONE',  ( 0.000000000000000000, 0.000000000000000000, 1.904232275596818402 ) ) ;
#168 = FACE_OUTER_BOUND ( 'NONE', #74, .T. ) ;
#169 = DIRECTION ( 'NONE',  ( -0.000000000000000000, -0.000000000000000000, 1.000000000000000000 ) ) ;
#170 = CIRCLE ( 'NONE', #206, 3.000000000000000000 ) ;
#171 = DIRECTION ( 'NONE',  ( -0.000000000000000000, -0.000000000000000000, 1.000000000000000000 ) ) ;
#172 = ADVANCED_FACE ( 'NONE', ( #191 ), #224, .T. ) ;
#173 = AXIS2_PLACEMENT_3D ( 'NONE', #21, #45, #124 ) ;
#174 = DIRECTION ( 'NONE',  ( -0.000000000000000000, -0.000000000000000000, 1.000000000000000000 ) ) ;
#175 = UNCERTAINTY_MEASURE_WITH_UNIT (LENGTH_MEASURE( 1.000000000000000082E-05 ), #101, 'distance_accuracy_value', 'NONE');
#176 = FACE_OUTER_BOUND ( 'NONE', #181, .T. ) ;
#177 = CARTESIAN_POINT ( 'NONE',  ( 0.000000000000000000, 0.000000000000000000, 11.82998799584086846 ) ) ;
#178 = VERTEX_POINT ( 'NONE', #265 ) ;
#179 = VERTEX_POINT ( 'NONE', #24 ) ;
#180 = ADVANCED_FACE ( 'NONE', ( #168 ), #188, .F. ) ;
#181 = EDGE_LOOP ( 'NONE', ( #163, #201, #32, #240 ) ) ;
#182 = PRODUCT_CONTEXT ( 'NONE', #48, 'mechanical' ) ;
#183 = SURFACE_STYLE_USAGE ( .BOTH. , #99 ) ;
#184 = ORIENTED_EDGE ( 'NONE', *, *, #41, .F. ) ;
#185 = AXIS2_PLACEMENT_3D ( 'NONE', #49, #109, #238 ) ;
#186 = DIRECTION ( 'NONE',  ( -1.000000000000000000, 0.000000000000000000, 0.000000000000000000 ) ) ;
#187 = CARTESIAN_POINT ( 'NONE',  ( 0.000000000000000000, 0.000000000000000000, 0.2000000000000011768 ) ) ;
#188 = TOROIDAL_SURFACE ( 'NONE', #141, -0.01574819937613159554, 10.33000000000000185 ) ;
#189 = CARTESIAN_POINT ( 'NONE',  ( 0.000000000000000000, 0.000000000000000000, 0.2000000000000011768 ) ) ;
#190 = DIRECTION ( 'NONE',  ( 1.000000000000000000, 0.000000000000000000, 0.000000000000000000 ) ) ;
#191 = FACE_OUTER_BOUND ( 'NONE', #257, .T. ) ;
#192 = COLOUR_RGB ( '',1.000000000000000000, 1.000000000000000000, 1.000000000000000000 ) ;
#193 = CIRCLE ( 'NONE', #76, 10.33000000000000185 ) ;
#194 = CARTESIAN_POINT ( 'NONE',  ( -3.000000000000000000, 3.673940397442059868E-16, 1.500000000000000000 ) ) ;
#195 = CARTESIAN_POINT ( 'NONE',  ( -3.000000000000000000, 3.673940397442059868E-16, 1.749999999999998002 ) ) ;
#196 = DIRECTION ( 'NONE',  ( 1.000000000000000000, 0.000000000000000000, 0.000000000000000000 ) ) ;
#197 = VECTOR ( 'NONE', #13, 999.9999999999998863 ) ;
#198 = VECTOR ( 'NONE', #211, 1000.000000000000000 ) ;
#199 = EDGE_CURVE ( 'NONE', #79, #77, #47, .T. ) ;
#200 = VERTEX_POINT ( 'NONE', #264 ) ;
#201 = ORIENTED_EDGE ( 'NONE', *, *, #137, .F. ) ;
#202 = FILL_AREA_STYLE ('',( #161 ) ) ;
#203 = SURFACE_STYLE_FILL_AREA ( #155 ) ;
#204 = ORIENTED_EDGE ( 'NONE', *, *, #11, .T. ) ;
#205 =( NAMED_UNIT ( * ) SI_UNIT ( $, .STERADIAN. ) SOLID_ANGLE_UNIT ( ) );
#206 = AXIS2_PLACEMENT_3D ( 'NONE', #8, #174, #28 ) ;
#207 = CIRCLE ( 'NONE', #6, 3.000000000000000000 ) ;
#208 = DIRECTION ( 'NONE',  ( -0.000000000000000000, -0.000000000000000000, 1.000000000000000000 ) ) ;
#209 = CARTESIAN_POINT ( 'NONE',  ( 0.000000000000000000, 0.000000000000000000, 1.836970198721029934E-16 ) ) ;
#210 = DIRECTION ( 'NONE',  ( -0.000000000000000000, -0.000000000000000000, 1.000000000000000000 ) ) ;
#211 = DIRECTION ( 'NONE',  ( -0.000000000000000000, -0.000000000000000000, 1.000000000000000000 ) ) ;
#212 = PRESENTATION_STYLE_ASSIGNMENT (( #183 ) ) ;
#213 = CARTESIAN_POINT ( 'NONE',  ( 0.000000000000000000, 0.000000000000000000, 0.2000000000000011768 ) ) ;
#214 = DIRECTION ( 'NONE',  ( -0.7071067811865490160, 8.659560562354952580E-17, 0.7071067811865460184 ) ) ;
#215 = DIRECTION ( 'NONE',  ( -0.000000000000000000, -0.000000000000000000, 1.000000000000000000 ) ) ;
#216 = DIRECTION ( 'NONE',  ( 0.7071067811865425767, 8.659560562354872461E-17, -0.7071067811865525687 ) ) ;
#217 = EDGE_LOOP ( 'NONE', ( #261, #130, #256, #58 ) ) ;
#218 = CLOSED_SHELL ( 'NONE', ( #172, #246, #65, #44, #180, #229, #107, #94, #228 ) ) ;
#219 = MECHANICAL_DESIGN_GEOMETRIC_PRESENTATION_REPRESENTATION (  '', ( #119 ), #263 ) ;
#220 = ORIENTED_EDGE ( 'NONE', *, *, #239, .T. ) ;
#221 = ORIENTED_EDGE ( 'NONE', *, *, #35, .T. ) ;
#222 = LINE ( 'NONE', #255, #31 ) ;
#223 = ORIENTED_EDGE ( 'NONE', *, *, #5, .F. ) ;
#224 = CONICAL_SURFACE ( 'NONE', #39, 2.845767724403181820, 0.7853981633974412846 ) ;
#225 = AXIS2_PLACEMENT_3D ( 'NONE', #59, #16, #165 ) ;
#226 =( LENGTH_UNIT ( ) NAMED_UNIT ( * ) SI_UNIT ( .MILLI., .METRE. ) );
#227 = AXIS2_PLACEMENT_3D ( 'NONE', #63, #230, #23 ) ;
#228 = ADVANCED_FACE ( 'NONE', ( #105 ), #22, .T. ) ;
#229 = ADVANCED_FACE ( 'NONE', ( #266 ), #42, .T. ) ;
#230 = DIRECTION ( 'NONE',  ( 1.224646799147353207E-16, 1.000000000000000000, 0.000000000000000000 ) ) ;
#231 = LINE ( 'NONE', #194, #198 ) ;
#232 = DIRECTION ( 'NONE',  ( 1.000000000000000000, 0.000000000000000000, 0.000000000000000000 ) ) ;
#233 =( NAMED_UNIT ( * ) SI_UNIT ( $, .STERADIAN. ) SOLID_ANGLE_UNIT ( ) );
#234 = CIRCLE ( 'NONE', #66, 2.845767724403182264 ) ;
#235 =( NAMED_UNIT ( * ) PLANE_ANGLE_UNIT ( ) SI_UNIT ( $, .RADIAN. ) );
#236 = DIRECTION ( 'NONE',  ( -0.000000000000000000, -0.000000000000000000, 1.000000000000000000 ) ) ;
#237 = EDGE_CURVE ( 'NONE', #178, #72, #118, .T. ) ;
#238 = DIRECTION ( 'NONE',  ( -1.000000000000000000, 0.000000000000000000, 0.000000000000000000 ) ) ;
#239 = EDGE_CURVE ( 'NONE', #200, #77, #75, .T. ) ;
#240 = ORIENTED_EDGE ( 'NONE', *, *, #138, .F. ) ;
#241 = AXIS2_PLACEMENT_3D ( 'NONE', #9, #7, #196 ) ;
#242 = CARTESIAN_POINT ( 'NONE',  ( -0.01574819937613159554, 0.000000000000000000, 11.82998799584086846 ) ) ;
#243 = ORIENTED_EDGE ( 'NONE', *, *, #199, .F. ) ;
#244 = ORIENTED_EDGE ( 'NONE', *, *, #138, .T. ) ;
#245 = SHAPE_DEFINITION_REPRESENTATION ( #81, #151 ) ;
#246 = ADVANCED_FACE ( 'NONE', ( #146 ), #262, .T. ) ;
#247 = CARTESIAN_POINT ( 'NONE',  ( 0.000000000000000000, 0.000000000000000000, 1.749999999999998002 ) ) ;
#248 = CARTESIAN_POINT ( 'NONE',  ( 0.000000000000000000, 0.000000000000000000, 1.500000000000000000 ) ) ;
#249 = AXIS2_PLACEMENT_3D ( 'NONE', #115, #126, #89 ) ;
#250 =( LENGTH_UNIT ( ) NAMED_UNIT ( * ) SI_UNIT ( .MILLI., .METRE. ) );
#251 = AXIS2_PLACEMENT_3D ( 'NONE', #189, #171, #67 ) ;
#252 = LINE ( 'NONE', #64, #88 ) ;
#253 = DIRECTION ( 'NONE',  ( 0.000000000000000000, 0.000000000000000000, -1.000000000000000000 ) ) ;
#254 = CARTESIAN_POINT ( 'NONE',  ( -2.845767724403185372, 3.485060334807207929E-16, 1.904232275596820179 ) ) ;
#255 = CARTESIAN_POINT ( 'NONE',  ( -3.000000000000000000, 3.673940397442059868E-16, 0.2000000000000011768 ) ) ;
#256 = ORIENTED_EDGE ( 'NONE', *, *, #26, .T. ) ;
#257 = EDGE_LOOP ( 'NONE', ( #243, #93, #129, #98 ) ) ;
#258 =( GEOMETRIC_REPRESENTATION_CONTEXT ( 3 ) GLOBAL_UNCERTAINTY_ASSIGNED_CONTEXT ( ( #175 ) ) GLOBAL_UNIT_ASSIGNED_CONTEXT ( ( #101, #121, #2 ) ) REPRESENTATION_CONTEXT ( 'NONE', 'WORKASPACE' ) );
#259 = ORIENTED_EDGE ( 'NONE', *, *, #69, .F. ) ;
#260 = ORIENTED_EDGE ( 'NONE', *, *, #34, .T. ) ;
#261 = ORIENTED_EDGE ( 'NONE', *, *, #69, .T. ) ;
#262 = CONICAL_SURFACE ( 'NONE', #123, 3.000000000000000000, 0.7853981633974504994 ) ;
#263 =( GEOMETRIC_REPRESENTATION_CONTEXT ( 3 ) GLOBAL_UNCERTAINTY_ASSIGNED_CONTEXT ( ( #132 ) ) GLOBAL_UNIT_ASSIGNED_CONTEXT ( ( #250, #235, #233 ) ) REPRESENTATION_CONTEXT ( 'NONE', 'WORKASPACE' ) );
#264 = CARTESIAN_POINT ( 'NONE',  ( 0.000000000000000000, 0.000000000000000000, 1.500000000000000000 ) ) ;
#265 = CARTESIAN_POINT ( 'NONE',  ( 3.000000000000000000, 0.000000000000000000, 1.749999999999998002 ) ) ;
#266 = FACE_OUTER_BOUND ( 'NONE', #110, .T. ) ;
ENDSEC;
END-ISO-10303-21;
