ISO-10303-21;
HEADER;
FILE_DESCRIPTION (( 'STEP AP214' ),
    '1' );
FILE_NAME ('120258.STEP',
    '2019-06-25T02:15:12',
    ( '' ),
    ( '' ),
    'SwSTEP 2.0',
    'SolidWorks 2016',
    '' );
FILE_SCHEMA (( 'AUTOMOTIVE_DESIGN' ));
ENDSEC;

DATA;
#1 = DIRECTION ( 'NONE',  ( 0.0000000000000000000, 0.0000000000000000000, 1.000000000000000000 ) ) ;
#2 = EDGE_LOOP ( 'NONE', ( #29, #99, #74, #169, #54 ) ) ;
#3 = VERTEX_POINT ( 'NONE', #17 ) ;
#4 = FACE_OUTER_BOUND ( 'NONE', #2, .T. ) ;
#5 = DIRECTION ( 'NONE',  ( -1.000000000000000000, -0.0000000000000000000, -0.0000000000000000000 ) ) ;
#6 = EDGE_CURVE ( 'NONE', #101, #32, #48, .T. ) ;
#7 = DIRECTION ( 'NONE',  ( -1.000000000000000000, -0.0000000000000000000, -0.0000000000000000000 ) ) ;
#8 = DIRECTION ( 'NONE',  ( 1.000000000000000000, 0.0000000000000000000, 0.0000000000000000000 ) ) ;
#9 = DIRECTION ( 'NONE',  ( 0.0000000000000000000, 0.0000000000000000000, 1.000000000000000000 ) ) ;
#10 =( GEOMETRIC_REPRESENTATION_CONTEXT ( 3 ) GLOBAL_UNCERTAINTY_ASSIGNED_CONTEXT ( ( #150 ) ) GLOBAL_UNIT_ASSIGNED_CONTEXT ( ( #67, #37, #55 ) ) REPRESENTATION_CONTEXT ( 'NONE', 'WORKASPACE' ) );
#11 = PRODUCT_CONTEXT ( 'NONE', #85, 'mechanical' ) ;
#12 = CARTESIAN_POINT ( 'NONE',  ( 44.78209190302423800, 28.47759563463748100, 6.350000000000001400 ) ) ;
#13 =( GEOMETRIC_REPRESENTATION_CONTEXT ( 3 ) GLOBAL_UNCERTAINTY_ASSIGNED_CONTEXT ( ( #68 ) ) GLOBAL_UNIT_ASSIGNED_CONTEXT ( ( #70, #39, #128 ) ) REPRESENTATION_CONTEXT ( 'NONE', 'WORKASPACE' ) );
#14 = CARTESIAN_POINT ( 'NONE',  ( 60.71370850148247900, 28.47759563463748800, 0.0000000000000000000 ) ) ;
#15 = VERTEX_POINT ( 'NONE', #143 ) ;
#16 = EDGE_CURVE ( 'NONE', #3, #59, #171, .T. ) ;
#17 = CARTESIAN_POINT ( 'NONE',  ( 51.17383952963595600, 28.47759563463748100, 6.350000000000001400 ) ) ;
#18 = ORIENTED_EDGE ( 'NONE', *, *, #102, .T. ) ;
#19 = EDGE_CURVE ( 'NONE', #101, #15, #132, .T. ) ;
#20 = PRESENTATION_LAYER_ASSIGNMENT (  '', '', ( #33 ) ) ;
#21 = DIRECTION ( 'NONE',  ( 0.0000000000000000000, 0.0000000000000000000, 1.000000000000000000 ) ) ;
#22 = AXIS2_PLACEMENT_3D ( 'NONE', #34, #8, #27 ) ;
#23 = CIRCLE ( 'NONE', #173, 11.45999999999999700 ) ;
#24 = DIRECTION ( 'NONE',  ( 0.0000000000000000000, 0.0000000000000000000, 1.000000000000000000 ) ) ;
#25 = APPLICATION_PROTOCOL_DEFINITION ( 'draft international standard', 'automotive_design', 1998, #40 ) ;
#26 = DIRECTION ( 'NONE',  ( -1.000000000000000000, -0.0000000000000000000, -0.0000000000000000000 ) ) ;
#27 = DIRECTION ( 'NONE',  ( 0.0000000000000000000, 0.0000000000000000000, -1.000000000000000000 ) ) ;
#28 = DIRECTION ( 'NONE',  ( -1.000000000000000000, -0.0000000000000000000, -0.0000000000000000000 ) ) ;
#29 = ORIENTED_EDGE ( 'NONE', *, *, #6, .F. ) ;
#30 = EDGE_LOOP ( 'NONE', ( #18, #84, #151, #114, #115 ) ) ;
#31 = CARTESIAN_POINT ( 'NONE',  ( 47.75370850148247100, 28.47759563463748100, -6.350000000000001400 ) ) ;
#32 = VERTEX_POINT ( 'NONE', #31 ) ;
#33 = STYLED_ITEM ( 'NONE', ( #58 ), #110 ) ;
#34 = CARTESIAN_POINT ( 'NONE',  ( 47.75370850148247100, 28.47759563463748100, 0.0000000000000000000 ) ) ;
#35 = AXIS2_PLACEMENT_3D ( 'NONE', #71, #72, #154 ) ;
#36 = EDGE_CURVE ( 'NONE', #111, #32, #83, .T. ) ;
#37 =( NAMED_UNIT ( * ) PLANE_ANGLE_UNIT ( ) SI_UNIT ( $, .RADIAN. ) );
#38 = EDGE_CURVE ( 'NONE', #15, #3, #76, .T. ) ;
#39 =( NAMED_UNIT ( * ) PLANE_ANGLE_UNIT ( ) SI_UNIT ( $, .RADIAN. ) );
#40 = APPLICATION_CONTEXT ( 'automotive_design' ) ;
#41 = FILL_AREA_STYLE_COLOUR ( '', #97 ) ;
#42 = SURFACE_STYLE_FILL_AREA ( #178 ) ;
#43 = DIRECTION ( 'NONE',  ( 0.0000000000000000000, -1.224646799147353200E-016, 1.000000000000000000 ) ) ;
#44 = PRODUCT_DEFINITION_CONTEXT ( 'detailed design', #40, 'design' ) ;
#45 = FACE_OUTER_BOUND ( 'NONE', #159, .T. ) ;
#46 = AXIS2_PLACEMENT_3D ( 'NONE', #172, #126, #81 ) ;
#47 = CARTESIAN_POINT ( 'NONE',  ( 60.71370850148247900, 28.47759563463748800, 0.0000000000000000000 ) ) ;
#48 = LINE ( 'NONE', #52, #163 ) ;
#49 = CARTESIAN_POINT ( 'NONE',  ( 51.17383952963595600, 28.47759563463748100, 0.0000000000000000000 ) ) ;
#50 = AXIS2_PLACEMENT_3D ( 'NONE', #82, #26, #9 ) ;
#51 = SPHERICAL_SURFACE ( 'NONE', #166, 11.45999999999999700 ) ;
#52 = CARTESIAN_POINT ( 'NONE',  ( 44.78209190302423800, 28.47759563463748100, -6.350000000000001400 ) ) ;
#53 = PRESENTATION_STYLE_ASSIGNMENT (( #131 ) ) ;
#54 = ORIENTED_EDGE ( 'NONE', *, *, #184, .F. ) ;
#55 =( NAMED_UNIT ( * ) SI_UNIT ( $, .STERADIAN. ) SOLID_ANGLE_UNIT ( ) );
#56 = FACE_OUTER_BOUND ( 'NONE', #186, .T. ) ;
#57 = AXIS2_PLACEMENT_3D ( 'NONE', #80, #176, #21 ) ;
#58 = PRESENTATION_STYLE_ASSIGNMENT (( #138 ) ) ;
#59 = VERTEX_POINT ( 'NONE', #79 ) ;
#60 = PRODUCT_DEFINITION ( 'Î´Öª', '', #168, #44 ) ;
#61 = ADVANCED_FACE ( 'NONE', ( #95 ), #93, .T. ) ;
#62 = ORIENTED_EDGE ( 'NONE', *, *, #181, .F. ) ;
#63 = CARTESIAN_POINT ( 'NONE',  ( 51.17383952963595600, 28.47759563463748100, -6.350000000000001400 ) ) ;
#64 = AXIS2_PLACEMENT_3D ( 'NONE', #98, #5, #24 ) ;
#65 = DIRECTION ( 'NONE',  ( 0.0000000000000000000, 0.0000000000000000000, 1.000000000000000000 ) ) ;
#66 = DIRECTION ( 'NONE',  ( 0.0000000000000000000, 0.0000000000000000000, 1.000000000000000000 ) ) ;
#67 =( LENGTH_UNIT ( ) NAMED_UNIT ( * ) SI_UNIT ( .MILLI., .METRE. ) );
#68 = UNCERTAINTY_MEASURE_WITH_UNIT (LENGTH_MEASURE( 1.000000000000000100E-005 ), #70, 'distance_accuracy_value', 'NONE');
#69 = AXIS2_PLACEMENT_3D ( 'NONE', #47, #65, #177 ) ;
#70 =( LENGTH_UNIT ( ) NAMED_UNIT ( * ) SI_UNIT ( .MILLI., .METRE. ) );
#71 = CARTESIAN_POINT ( 'NONE',  ( 0.0000000000000000000, 0.0000000000000000000, 0.0000000000000000000 ) ) ;
#72 = DIRECTION ( 'NONE',  ( 0.0000000000000000000, 0.0000000000000000000, 1.000000000000000000 ) ) ;
#73 = AXIS2_PLACEMENT_3D ( 'NONE', #14, #43, #141 ) ;
#74 = ORIENTED_EDGE ( 'NONE', *, *, #38, .T. ) ;
#75 = CARTESIAN_POINT ( 'NONE',  ( 44.78209190302423800, 28.47759563463748100, 0.0000000000000000000 ) ) ;
#76 = CIRCLE ( 'NONE', #91, 6.350000000000001400 ) ;
#77 = ORIENTED_EDGE ( 'NONE', *, *, #38, .F. ) ;
#78 = PRODUCT_RELATED_PRODUCT_CATEGORY ( 'part', '', ( #94 ) ) ;
#79 = CARTESIAN_POINT ( 'NONE',  ( 51.17383952963595600, 34.82759563463748300, 7.776507174585687200E-016 ) ) ;
#80 = CARTESIAN_POINT ( 'NONE',  ( 47.75370850148247100, 28.47759563463748100, 0.0000000000000000000 ) ) ;
#81 = DIRECTION ( 'NONE',  ( 0.0000000000000000000, 0.0000000000000000000, 1.000000000000000000 ) ) ;
#82 = CARTESIAN_POINT ( 'NONE',  ( 47.75370850148247100, 28.47759563463748100, 0.0000000000000000000 ) ) ;
#83 = CIRCLE ( 'NONE', #57, 6.350000000000001400 ) ;
#84 = ORIENTED_EDGE ( 'NONE', *, *, #6, .T. ) ;
#85 = APPLICATION_CONTEXT ( 'automotive_design' ) ;
#86 = CARTESIAN_POINT ( 'NONE',  ( 44.78209190302423800, 28.47759563463748100, 0.0000000000000000000 ) ) ;
#87 = STYLED_ITEM ( 'NONE', ( #53 ), #133 ) ;
#88 =( NAMED_UNIT ( * ) PLANE_ANGLE_UNIT ( ) SI_UNIT ( $, .RADIAN. ) );
#89 = SHAPE_DEFINITION_REPRESENTATION ( #144, #110 ) ;
#90 = EDGE_LOOP ( 'NONE', ( #146, #123, #62, #135 ) ) ;
#91 = AXIS2_PLACEMENT_3D ( 'NONE', #49, #125, #174 ) ;
#92 = LINE ( 'NONE', #12, #182 ) ;
#93 = CYLINDRICAL_SURFACE ( 'NONE', #112, 6.350000000000001400 ) ;
#94 = PRODUCT ( '120258', '120258', '', ( #11 ) ) ;
#95 = FACE_OUTER_BOUND ( 'NONE', #30, .T. ) ;
#96 = AXIS2_PLACEMENT_3D ( 'NONE', #145, #113, #66 ) ;
#97 = COLOUR_RGB ( '',1.000000000000000000, 1.000000000000000000, 1.000000000000000000 ) ;
#98 = CARTESIAN_POINT ( 'NONE',  ( 51.17383952963595600, 28.47759563463748100, 0.0000000000000000000 ) ) ;
#99 = ORIENTED_EDGE ( 'NONE', *, *, #19, .T. ) ;
#100 = DIRECTION ( 'NONE',  ( 0.0000000000000000000, -1.000000000000000000, 0.0000000000000000000 ) ) ;
#101 = VERTEX_POINT ( 'NONE', #63 ) ;
#102 = EDGE_CURVE ( 'NONE', #59, #101, #158, .T. ) ;
#103 = CARTESIAN_POINT ( 'NONE',  ( 60.71370850148247900, 28.47759563463748800, 0.0000000000000000000 ) ) ;
#104 = DIRECTION ( 'NONE',  ( 0.0000000000000000000, 0.0000000000000000000, 1.000000000000000000 ) ) ;
#105 = CYLINDRICAL_SURFACE ( 'NONE', #134, 6.350000000000001400 ) ;
#106 = VERTEX_POINT ( 'NONE', #165 ) ;
#107 = ADVANCED_FACE ( 'NONE', ( #161 ), #142, .F. ) ;
#108 = PRESENTATION_LAYER_ASSIGNMENT (  '', '', ( #87 ) ) ;
#109 = SURFACE_STYLE_FILL_AREA ( #155 ) ;
#110 = ADVANCED_BREP_SHAPE_REPRESENTATION ( '120258', ( #133, #35 ), #13 ) ;
#111 = VERTEX_POINT ( 'NONE', #162 ) ;
#112 = AXIS2_PLACEMENT_3D ( 'NONE', #75, #160, #1 ) ;
#113 = DIRECTION ( 'NONE',  ( -1.000000000000000000, -0.0000000000000000000, -0.0000000000000000000 ) ) ;
#114 = ORIENTED_EDGE ( 'NONE', *, *, #136, .F. ) ;
#115 = ORIENTED_EDGE ( 'NONE', *, *, #16, .T. ) ;
#116 = MECHANICAL_DESIGN_GEOMETRIC_PRESENTATION_REPRESENTATION (  '', ( #87 ), #148 ) ;
#117 = SURFACE_SIDE_STYLE ('',( #109 ) ) ;
#118 = CARTESIAN_POINT ( 'NONE',  ( 60.71370850148247900, 28.47759563463748800, 0.0000000000000000000 ) ) ;
#119 = ADVANCED_FACE ( 'NONE', ( #56 ), #121, .F. ) ;
#120 = EDGE_CURVE ( 'NONE', #59, #106, #122, .T. ) ;
#121 = PLANE ( 'NONE',  #22 ) ;
#122 = CIRCLE ( 'NONE', #73, 11.45999999999999700 ) ;
#123 = ORIENTED_EDGE ( 'NONE', *, *, #120, .T. ) ;
#124 = COLOUR_RGB ( '',1.000000000000000000, 1.000000000000000000, 1.000000000000000000 ) ;
#125 = DIRECTION ( 'NONE',  ( -1.000000000000000000, -0.0000000000000000000, -0.0000000000000000000 ) ) ;
#126 = DIRECTION ( 'NONE',  ( -1.000000000000000000, -0.0000000000000000000, -0.0000000000000000000 ) ) ;
#127 = CIRCLE ( 'NONE', #50, 6.350000000000001400 ) ;
#128 =( NAMED_UNIT ( * ) SI_UNIT ( $, .STERADIAN. ) SOLID_ANGLE_UNIT ( ) );
#129 = DIRECTION ( 'NONE',  ( 0.0000000000000000000, 0.0000000000000000000, -1.000000000000000000 ) ) ;
#130 = DIRECTION ( 'NONE',  ( -1.000000000000000000, 0.0000000000000000000, 0.0000000000000000000 ) ) ;
#131 = SURFACE_STYLE_USAGE ( .BOTH. , #117 ) ;
#132 = CIRCLE ( 'NONE', #96, 6.350000000000001400 ) ;
#133 = MANIFOLD_SOLID_BREP ( 'Ðý×ª1', #139 ) ;
#134 = AXIS2_PLACEMENT_3D ( 'NONE', #86, #7, #179 ) ;
#135 = ORIENTED_EDGE ( 'NONE', *, *, #19, .F. ) ;
#136 = EDGE_CURVE ( 'NONE', #3, #111, #92, .T. ) ;
#137 = UNCERTAINTY_MEASURE_WITH_UNIT (LENGTH_MEASURE( 1.000000000000000100E-005 ), #167, 'distance_accuracy_value', 'NONE');
#138 = SURFACE_STYLE_USAGE ( .BOTH. , #140 ) ;
#139 = CLOSED_SHELL ( 'NONE', ( #61, #107, #157, #185, #119 ) ) ;
#140 = SURFACE_SIDE_STYLE ('',( #42 ) ) ;
#141 = DIRECTION ( 'NONE',  ( 0.0000000000000000000, -1.000000000000000000, -1.224646799147353200E-016 ) ) ;
#142 = SPHERICAL_SURFACE ( 'NONE', #69, 11.45999999999999700 ) ;
#143 = CARTESIAN_POINT ( 'NONE',  ( 51.17383952963595600, 22.12759563463748700, 0.0000000000000000000 ) ) ;
#144 = PRODUCT_DEFINITION_SHAPE ( 'NONE', 'NONE',  #60 ) ;
#145 = CARTESIAN_POINT ( 'NONE',  ( 51.17383952963595600, 28.47759563463748100, 0.0000000000000000000 ) ) ;
#146 = ORIENTED_EDGE ( 'NONE', *, *, #102, .F. ) ;
#147 = ORIENTED_EDGE ( 'NONE', *, *, #120, .F. ) ;
#148 =( GEOMETRIC_REPRESENTATION_CONTEXT ( 3 ) GLOBAL_UNCERTAINTY_ASSIGNED_CONTEXT ( ( #137 ) ) GLOBAL_UNIT_ASSIGNED_CONTEXT ( ( #167, #88, #183 ) ) REPRESENTATION_CONTEXT ( 'NONE', 'WORKASPACE' ) );
#149 = DIRECTION ( 'NONE',  ( -1.000000000000000000, -0.0000000000000000000, -0.0000000000000000000 ) ) ;
#150 = UNCERTAINTY_MEASURE_WITH_UNIT (LENGTH_MEASURE( 1.000000000000000100E-005 ), #67, 'distance_accuracy_value', 'NONE');
#151 = ORIENTED_EDGE ( 'NONE', *, *, #36, .F. ) ;
#152 = MECHANICAL_DESIGN_GEOMETRIC_PRESENTATION_REPRESENTATION (  '', ( #33 ), #10 ) ;
#153 = FILL_AREA_STYLE_COLOUR ( '', #124 ) ;
#154 = DIRECTION ( 'NONE',  ( 1.000000000000000000, 0.0000000000000000000, 0.0000000000000000000 ) ) ;
#155 = FILL_AREA_STYLE ('',( #153 ) ) ;
#156 = ORIENTED_EDGE ( 'NONE', *, *, #184, .T. ) ;
#157 = ADVANCED_FACE ( 'NONE', ( #45 ), #51, .F. ) ;
#158 = CIRCLE ( 'NONE', #64, 6.350000000000001400 ) ;
#159 = EDGE_LOOP ( 'NONE', ( #147, #175, #77, #164 ) ) ;
#160 = DIRECTION ( 'NONE',  ( -1.000000000000000000, -0.0000000000000000000, -0.0000000000000000000 ) ) ;
#161 = FACE_OUTER_BOUND ( 'NONE', #90, .T. ) ;
#162 = CARTESIAN_POINT ( 'NONE',  ( 47.75370850148247100, 28.47759563463748100, 6.350000000000001400 ) ) ;
#163 = VECTOR ( 'NONE', #149, 1000.000000000000000 ) ;
#164 = ORIENTED_EDGE ( 'NONE', *, *, #181, .T. ) ;
#165 = CARTESIAN_POINT ( 'NONE',  ( 49.25370850148247800, 28.47759563463748800, 0.0000000000000000000 ) ) ;
#166 = AXIS2_PLACEMENT_3D ( 'NONE', #118, #104, #100 ) ;
#167 =( LENGTH_UNIT ( ) NAMED_UNIT ( * ) SI_UNIT ( .MILLI., .METRE. ) );
#168 = PRODUCT_DEFINITION_FORMATION_WITH_SPECIFIED_SOURCE ( 'ÈÎºÎ', '', #94, .NOT_KNOWN. ) ;
#169 = ORIENTED_EDGE ( 'NONE', *, *, #136, .T. ) ;
#170 = ORIENTED_EDGE ( 'NONE', *, *, #36, .T. ) ;
#171 = CIRCLE ( 'NONE', #46, 6.350000000000001400 ) ;
#172 = CARTESIAN_POINT ( 'NONE',  ( 51.17383952963595600, 28.47759563463748100, 0.0000000000000000000 ) ) ;
#173 = AXIS2_PLACEMENT_3D ( 'NONE', #103, #129, #130 ) ;
#174 = DIRECTION ( 'NONE',  ( 0.0000000000000000000, 0.0000000000000000000, 1.000000000000000000 ) ) ;
#175 = ORIENTED_EDGE ( 'NONE', *, *, #16, .F. ) ;
#176 = DIRECTION ( 'NONE',  ( -1.000000000000000000, -0.0000000000000000000, -0.0000000000000000000 ) ) ;
#177 = DIRECTION ( 'NONE',  ( 0.0000000000000000000, -1.000000000000000000, 0.0000000000000000000 ) ) ;
#178 = FILL_AREA_STYLE ('',( #41 ) ) ;
#179 = DIRECTION ( 'NONE',  ( 0.0000000000000000000, 0.0000000000000000000, 1.000000000000000000 ) ) ;
#180 = APPLICATION_PROTOCOL_DEFINITION ( 'draft international standard', 'automotive_design', 1998, #85 ) ;
#181 = EDGE_CURVE ( 'NONE', #15, #106, #23, .T. ) ;
#182 = VECTOR ( 'NONE', #28, 1000.000000000000000 ) ;
#183 =( NAMED_UNIT ( * ) SI_UNIT ( $, .STERADIAN. ) SOLID_ANGLE_UNIT ( ) );
#184 = EDGE_CURVE ( 'NONE', #32, #111, #127, .T. ) ;
#185 = ADVANCED_FACE ( 'NONE', ( #4 ), #105, .T. ) ;
#186 = EDGE_LOOP ( 'NONE', ( #170, #156 ) ) ;
ENDSEC;
END-ISO-10303-21;
