ISO-10303-21;
HEADER;
FILE_DESCRIPTION (( 'STEP AP214' ),
    '1' );
FILE_NAME ('120024.STEP',
    '2019-06-17T01:14:36',
    ( '' ),
    ( '' ),
    'SwSTEP 2.0',
    'SolidWorks 2016',
    '' );
FILE_SCHEMA (( 'AUTOMOTIVE_DESIGN' ));
ENDSEC;

DATA;
#1 = DIRECTION ( 'NONE',  ( 1.000000000000000000, 0.0000000000000000000, 0.0000000000000000000 ) ) ;
#2 = PRESENTATION_STYLE_ASSIGNMENT (( #168 ) ) ;
#3 = AXIS2_PLACEMENT_3D ( 'NONE', #61, #100, #167 ) ;
#4 = PRODUCT ( '120024', '120024', '', ( #36 ) ) ;
#5 = DIRECTION ( 'NONE',  ( 1.000000000000000000, 0.0000000000000000000, 0.0000000000000000000 ) ) ;
#6 = EDGE_CURVE ( 'NONE', #50, #16, #120, .T. ) ;
#7 = ORIENTED_EDGE ( 'NONE', *, *, #108, .T. ) ;
#8 = CLOSED_SHELL ( 'NONE', ( #33, #21, #106, #186, #185 ) ) ;
#9 = VERTEX_POINT ( 'NONE', #83 ) ;
#10 = AXIS2_PLACEMENT_3D ( 'NONE', #20, #99, #119 ) ;
#11 = EDGE_CURVE ( 'NONE', #43, #9, #154, .T. ) ;
#12 = COLOUR_RGB ( '',1.000000000000000000, 1.000000000000000000, 1.000000000000000000 ) ;
#13 = PRODUCT_DEFINITION_CONTEXT ( 'detailed design', #158, 'design' ) ;
#14 = DIRECTION ( 'NONE',  ( 0.0000000000000000000, 0.0000000000000000000, -1.000000000000000000 ) ) ;
#15 = SPHERICAL_SURFACE ( 'NONE', #107, 32.50000000000000000 ) ;
#16 = VERTEX_POINT ( 'NONE', #132 ) ;
#17 = EDGE_LOOP ( 'NONE', ( #85, #52, #180, #152, #63 ) ) ;
#18 = AXIS2_PLACEMENT_3D ( 'NONE', #135, #42, #117 ) ;
#19 = CARTESIAN_POINT ( 'NONE',  ( 46.81915265761604400, 26.08904114919495900, 0.0000000000000000000 ) ) ;
#20 = CARTESIAN_POINT ( 'NONE',  ( 44.31915269315436500, 26.08904114919495900, 0.0000000000000000000 ) ) ;
#21 = ADVANCED_FACE ( 'NONE', ( #51 ), #15, .F. ) ;
#22 = EDGE_LOOP ( 'NONE', ( #69, #23, #123, #38, #44 ) ) ;
#23 = ORIENTED_EDGE ( 'NONE', *, *, #96, .T. ) ;
#24 = CARTESIAN_POINT ( 'NONE',  ( 42.44986111413682300, 26.08904114919495900, 0.0000000000000000000 ) ) ;
#25 =( NAMED_UNIT ( * ) PLANE_ANGLE_UNIT ( ) SI_UNIT ( $, .RADIAN. ) );
#26 = STYLED_ITEM ( 'NONE', ( #2 ), #143 ) ;
#27 = CARTESIAN_POINT ( 'NONE',  ( 0.0000000000000000000, 0.0000000000000000000, 0.0000000000000000000 ) ) ;
#28 = DIRECTION ( 'NONE',  ( -1.000000000000000000, -0.0000000000000000000, -0.0000000000000000000 ) ) ;
#29 = ADVANCED_BREP_SHAPE_REPRESENTATION ( '120024', ( #143, #148 ), #64 ) ;
#30 = DIRECTION ( 'NONE',  ( 0.0000000000000000000, 1.000000000000000000, 1.224646799147353500E-016 ) ) ;
#31 = CARTESIAN_POINT ( 'NONE',  ( 78.31915265761604400, 26.08904114919495500, 0.0000000000000000000 ) ) ;
#32 =( LENGTH_UNIT ( ) NAMED_UNIT ( * ) SI_UNIT ( .MILLI., .METRE. ) );
#33 = ADVANCED_FACE ( 'NONE', ( #171 ), #48, .T. ) ;
#34 = PRESENTATION_LAYER_ASSIGNMENT (  '', '', ( #130 ) ) ;
#35 = CIRCLE ( 'NONE', #169, 7.999999999999996400 ) ;
#36 = PRODUCT_CONTEXT ( 'NONE', #131, 'mechanical' ) ;
#37 =( NAMED_UNIT ( * ) PLANE_ANGLE_UNIT ( ) SI_UNIT ( $, .RADIAN. ) );
#38 = ORIENTED_EDGE ( 'NONE', *, *, #155, .T. ) ;
#39 =( NAMED_UNIT ( * ) PLANE_ANGLE_UNIT ( ) SI_UNIT ( $, .RADIAN. ) );
#40 = FACE_OUTER_BOUND ( 'NONE', #129, .T. ) ;
#41 = SURFACE_STYLE_FILL_AREA ( #45 ) ;
#42 = DIRECTION ( 'NONE',  ( -1.000000000000000000, -0.0000000000000000000, -0.0000000000000000000 ) ) ;
#43 = VERTEX_POINT ( 'NONE', #147 ) ;
#44 = ORIENTED_EDGE ( 'NONE', *, *, #108, .F. ) ;
#45 = FILL_AREA_STYLE ('',( #86 ) ) ;
#46 = AXIS2_PLACEMENT_3D ( 'NONE', #24, #28, #93 ) ;
#47 = DIRECTION ( 'NONE',  ( -1.000000000000000000, -0.0000000000000000000, -0.0000000000000000000 ) ) ;
#48 = CYLINDRICAL_SURFACE ( 'NONE', #18, 8.000000000000000000 ) ;
#49 = EDGE_CURVE ( 'NONE', #172, #89, #74, .T. ) ;
#50 = VERTEX_POINT ( 'NONE', #60 ) ;
#51 = FACE_OUTER_BOUND ( 'NONE', #92, .T. ) ;
#52 = ORIENTED_EDGE ( 'NONE', *, *, #177, .T. ) ;
#53 = CYLINDRICAL_SURFACE ( 'NONE', #46, 8.000000000000000000 ) ;
#54 = ORIENTED_EDGE ( 'NONE', *, *, #65, .T. ) ;
#55 = AXIS2_PLACEMENT_3D ( 'NONE', #73, #149, #184 ) ;
#56 = DIRECTION ( 'NONE',  ( 0.0000000000000000000, 0.0000000000000000000, 1.000000000000000000 ) ) ;
#57 = FILL_AREA_STYLE ('',( #127 ) ) ;
#58 = ORIENTED_EDGE ( 'NONE', *, *, #105, .F. ) ;
#59 = ORIENTED_EDGE ( 'NONE', *, *, #6, .T. ) ;
#60 = CARTESIAN_POINT ( 'NONE',  ( 46.81915265761604400, 18.08904114919495900, -9.797174393178823700E-016 ) ) ;
#61 = CARTESIAN_POINT ( 'NONE',  ( 46.81915265761604400, 26.08904114919495900, 0.0000000000000000000 ) ) ;
#62 = DIRECTION ( 'NONE',  ( 1.000000000000000000, 0.0000000000000000000, 0.0000000000000000000 ) ) ;
#63 = ORIENTED_EDGE ( 'NONE', *, *, #80, .T. ) ;
#64 =( GEOMETRIC_REPRESENTATION_CONTEXT ( 3 ) GLOBAL_UNCERTAINTY_ASSIGNED_CONTEXT ( ( #67 ) ) GLOBAL_UNIT_ASSIGNED_CONTEXT ( ( #94, #37, #68 ) ) REPRESENTATION_CONTEXT ( 'NONE', 'WORKASPACE' ) );
#65 = EDGE_CURVE ( 'NONE', #172, #16, #81, .T. ) ;
#66 = SURFACE_SIDE_STYLE ('',( #121 ) ) ;
#67 = UNCERTAINTY_MEASURE_WITH_UNIT (LENGTH_MEASURE( 1.000000000000000100E-005 ), #94, 'distance_accuracy_value', 'NONE');
#68 =( NAMED_UNIT ( * ) SI_UNIT ( $, .STERADIAN. ) SOLID_ANGLE_UNIT ( ) );
#69 = ORIENTED_EDGE ( 'NONE', *, *, #177, .F. ) ;
#70 = DIRECTION ( 'NONE',  ( -1.000000000000000000, -0.0000000000000000000, -0.0000000000000000000 ) ) ;
#71 = DIRECTION ( 'NONE',  ( -1.000000000000000000, -0.0000000000000000000, -0.0000000000000000000 ) ) ;
#72 = MECHANICAL_DESIGN_GEOMETRIC_PRESENTATION_REPRESENTATION (  '', ( #26 ), #182 ) ;
#73 = CARTESIAN_POINT ( 'NONE',  ( 78.31915265761604400, 26.08904114919495500, 0.0000000000000000000 ) ) ;
#74 = CIRCLE ( 'NONE', #3, 7.999999999999996400 ) ;
#75 = CIRCLE ( 'NONE', #153, 7.999999999999996400 ) ;
#76 = COLOUR_RGB ( '',1.000000000000000000, 1.000000000000000000, 1.000000000000000000 ) ;
#77 = PLANE ( 'NONE',  #103 ) ;
#78 = AXIS2_PLACEMENT_3D ( 'NONE', #139, #47, #104 ) ;
#79 = DIRECTION ( 'NONE',  ( -1.000000000000000000, -0.0000000000000000000, -0.0000000000000000000 ) ) ;
#80 = EDGE_CURVE ( 'NONE', #133, #172, #35, .T. ) ;
#81 = CIRCLE ( 'NONE', #146, 32.50000000000000000 ) ;
#82 = DIRECTION ( 'NONE',  ( 0.0000000000000000000, 1.224646799147353200E-016, -1.000000000000000000 ) ) ;
#83 = CARTESIAN_POINT ( 'NONE',  ( 44.31915269315436500, 26.08904114919495900, -8.000000000000003600 ) ) ;
#84 = AXIS2_PLACEMENT_3D ( 'NONE', #31, #82, #30 ) ;
#85 = ORIENTED_EDGE ( 'NONE', *, *, #49, .T. ) ;
#86 = FILL_AREA_STYLE_COLOUR ( '', #76 ) ;
#87 = CARTESIAN_POINT ( 'NONE',  ( 42.44986111413682300, 26.08904114919495900, 8.000000000000000000 ) ) ;
#88 = CARTESIAN_POINT ( 'NONE',  ( 46.81915265761604400, 26.08904114919495900, 7.999999999999996400 ) ) ;
#89 = VERTEX_POINT ( 'NONE', #151 ) ;
#90 = PRODUCT_DEFINITION_SHAPE ( 'NONE', 'NONE',  #144 ) ;
#91 = AXIS2_PLACEMENT_3D ( 'NONE', #116, #71, #137 ) ;
#92 = EDGE_LOOP ( 'NONE', ( #58, #59, #165, #175 ) ) ;
#93 = DIRECTION ( 'NONE',  ( 0.0000000000000000000, 0.0000000000000000000, 1.000000000000000000 ) ) ;
#94 =( LENGTH_UNIT ( ) NAMED_UNIT ( * ) SI_UNIT ( .MILLI., .METRE. ) );
#95 = EDGE_LOOP ( 'NONE', ( #125, #7 ) ) ;
#96 = EDGE_CURVE ( 'NONE', #89, #50, #75, .T. ) ;
#97 =( NAMED_UNIT ( * ) SI_UNIT ( $, .STERADIAN. ) SOLID_ANGLE_UNIT ( ) );
#98 = CARTESIAN_POINT ( 'NONE',  ( 46.81915265761604400, 34.08904114919495500, 0.0000000000000000000 ) ) ;
#99 = DIRECTION ( 'NONE',  ( -1.000000000000000000, -0.0000000000000000000, -0.0000000000000000000 ) ) ;
#100 = DIRECTION ( 'NONE',  ( -1.000000000000000000, -0.0000000000000000000, -0.0000000000000000000 ) ) ;
#101 = UNCERTAINTY_MEASURE_WITH_UNIT (LENGTH_MEASURE( 1.000000000000000100E-005 ), #32, 'distance_accuracy_value', 'NONE');
#102 = DIRECTION ( 'NONE',  ( 0.0000000000000000000, 0.0000000000000000000, 1.000000000000000000 ) ) ;
#103 = AXIS2_PLACEMENT_3D ( 'NONE', #109, #1, #14 ) ;
#104 = DIRECTION ( 'NONE',  ( 0.0000000000000000000, 0.0000000000000000000, 1.000000000000000000 ) ) ;
#105 = EDGE_CURVE ( 'NONE', #50, #133, #114, .T. ) ;
#106 = ADVANCED_FACE ( 'NONE', ( #40 ), #164, .F. ) ;
#107 = AXIS2_PLACEMENT_3D ( 'NONE', #115, #163, #138 ) ;
#108 = EDGE_CURVE ( 'NONE', #9, #43, #122, .T. ) ;
#109 = CARTESIAN_POINT ( 'NONE',  ( 44.31915269315436500, 26.08904114919495900, 0.0000000000000000000 ) ) ;
#110 =( NAMED_UNIT ( * ) SI_UNIT ( $, .STERADIAN. ) SOLID_ANGLE_UNIT ( ) );
#111 = DIRECTION ( 'NONE',  ( -1.000000000000000000, -0.0000000000000000000, -0.0000000000000000000 ) ) ;
#112 = SURFACE_STYLE_USAGE ( .BOTH. , #66 ) ;
#113 = MECHANICAL_DESIGN_GEOMETRIC_PRESENTATION_REPRESENTATION (  '', ( #130 ), #124 ) ;
#114 = CIRCLE ( 'NONE', #78, 7.999999999999996400 ) ;
#115 = CARTESIAN_POINT ( 'NONE',  ( 78.31915265761604400, 26.08904114919495500, 0.0000000000000000000 ) ) ;
#116 = CARTESIAN_POINT ( 'NONE',  ( 44.31915269315436500, 26.08904114919495900, 0.0000000000000000000 ) ) ;
#117 = DIRECTION ( 'NONE',  ( 0.0000000000000000000, 0.0000000000000000000, 1.000000000000000000 ) ) ;
#118 = DIRECTION ( 'NONE',  ( -1.000000000000000000, -0.0000000000000000000, -0.0000000000000000000 ) ) ;
#119 = DIRECTION ( 'NONE',  ( 0.0000000000000000000, 0.0000000000000000000, 1.000000000000000000 ) ) ;
#120 = CIRCLE ( 'NONE', #84, 32.50000000000000000 ) ;
#121 = SURFACE_STYLE_FILL_AREA ( #57 ) ;
#122 = CIRCLE ( 'NONE', #10, 8.000000000000003600 ) ;
#123 = ORIENTED_EDGE ( 'NONE', *, *, #105, .T. ) ;
#124 =( GEOMETRIC_REPRESENTATION_CONTEXT ( 3 ) GLOBAL_UNCERTAINTY_ASSIGNED_CONTEXT ( ( #159 ) ) GLOBAL_UNIT_ASSIGNED_CONTEXT ( ( #156, #25, #97 ) ) REPRESENTATION_CONTEXT ( 'NONE', 'WORKASPACE' ) );
#125 = ORIENTED_EDGE ( 'NONE', *, *, #11, .T. ) ;
#126 = VECTOR ( 'NONE', #111, 1000.000000000000000 ) ;
#127 = FILL_AREA_STYLE_COLOUR ( '', #12 ) ;
#128 = APPLICATION_PROTOCOL_DEFINITION ( 'draft international standard', 'automotive_design', 1998, #131 ) ;
#129 = EDGE_LOOP ( 'NONE', ( #178, #141, #145, #54 ) ) ;
#130 = STYLED_ITEM ( 'NONE', ( #134 ), #29 ) ;
#131 = APPLICATION_CONTEXT ( 'automotive_design' ) ;
#132 = CARTESIAN_POINT ( 'NONE',  ( 45.81915265761604400, 26.08904114919495900, 0.0000000000000000000 ) ) ;
#133 = VERTEX_POINT ( 'NONE', #88 ) ;
#134 = PRESENTATION_STYLE_ASSIGNMENT (( #112 ) ) ;
#135 = CARTESIAN_POINT ( 'NONE',  ( 42.44986111413682300, 26.08904114919495900, 0.0000000000000000000 ) ) ;
#136 = VECTOR ( 'NONE', #79, 1000.000000000000000 ) ;
#137 = DIRECTION ( 'NONE',  ( 0.0000000000000000000, 0.0000000000000000000, 1.000000000000000000 ) ) ;
#138 = DIRECTION ( 'NONE',  ( 0.0000000000000000000, 1.000000000000000000, 0.0000000000000000000 ) ) ;
#139 = CARTESIAN_POINT ( 'NONE',  ( 46.81915265761604400, 26.08904114919495900, 0.0000000000000000000 ) ) ;
#140 = CARTESIAN_POINT ( 'NONE',  ( 46.81915265761604400, 26.08904114919495900, 0.0000000000000000000 ) ) ;
#141 = ORIENTED_EDGE ( 'NONE', *, *, #96, .F. ) ;
#142 = FACE_OUTER_BOUND ( 'NONE', #22, .T. ) ;
#143 = MANIFOLD_SOLID_BREP ( 'Ðý×ª1', #8 ) ;
#144 = PRODUCT_DEFINITION ( 'Î´Öª', '', #157, #13 ) ;
#145 = ORIENTED_EDGE ( 'NONE', *, *, #49, .F. ) ;
#146 = AXIS2_PLACEMENT_3D ( 'NONE', #150, #183, #62 ) ;
#147 = CARTESIAN_POINT ( 'NONE',  ( 44.31915269315436500, 26.08904114919495900, 8.000000000000003600 ) ) ;
#148 = AXIS2_PLACEMENT_3D ( 'NONE', #27, #56, #5 ) ;
#149 = DIRECTION ( 'NONE',  ( 0.0000000000000000000, 0.0000000000000000000, -1.000000000000000000 ) ) ;
#150 = CARTESIAN_POINT ( 'NONE',  ( 78.31915265761604400, 26.08904114919495500, 0.0000000000000000000 ) ) ;
#151 = CARTESIAN_POINT ( 'NONE',  ( 46.81915265761604400, 26.08904114919495900, -7.999999999999996400 ) ) ;
#152 = ORIENTED_EDGE ( 'NONE', *, *, #155, .F. ) ;
#153 = AXIS2_PLACEMENT_3D ( 'NONE', #19, #118, #170 ) ;
#154 = CIRCLE ( 'NONE', #91, 8.000000000000003600 ) ;
#155 = EDGE_CURVE ( 'NONE', #133, #43, #162, .T. ) ;
#156 =( LENGTH_UNIT ( ) NAMED_UNIT ( * ) SI_UNIT ( .MILLI., .METRE. ) );
#157 = PRODUCT_DEFINITION_FORMATION_WITH_SPECIFIED_SOURCE ( 'ÈÎºÎ', '', #4, .NOT_KNOWN. ) ;
#158 = APPLICATION_CONTEXT ( 'automotive_design' ) ;
#159 = UNCERTAINTY_MEASURE_WITH_UNIT (LENGTH_MEASURE( 1.000000000000000100E-005 ), #156, 'distance_accuracy_value', 'NONE');
#160 = CARTESIAN_POINT ( 'NONE',  ( 42.44986111413682300, 26.08904114919495900, -8.000000000000000000 ) ) ;
#161 = APPLICATION_PROTOCOL_DEFINITION ( 'draft international standard', 'automotive_design', 1998, #158 ) ;
#162 = LINE ( 'NONE', #87, #136 ) ;
#163 = DIRECTION ( 'NONE',  ( 0.0000000000000000000, 0.0000000000000000000, -1.000000000000000000 ) ) ;
#164 = SPHERICAL_SURFACE ( 'NONE', #55, 32.50000000000000000 ) ;
#165 = ORIENTED_EDGE ( 'NONE', *, *, #65, .F. ) ;
#166 = SURFACE_SIDE_STYLE ('',( #41 ) ) ;
#167 = DIRECTION ( 'NONE',  ( 0.0000000000000000000, 0.0000000000000000000, 1.000000000000000000 ) ) ;
#168 = SURFACE_STYLE_USAGE ( .BOTH. , #166 ) ;
#169 = AXIS2_PLACEMENT_3D ( 'NONE', #140, #70, #102 ) ;
#170 = DIRECTION ( 'NONE',  ( 0.0000000000000000000, 0.0000000000000000000, 1.000000000000000000 ) ) ;
#171 = FACE_OUTER_BOUND ( 'NONE', #17, .T. ) ;
#172 = VERTEX_POINT ( 'NONE', #98 ) ;
#173 = LINE ( 'NONE', #160, #126 ) ;
#174 = SHAPE_DEFINITION_REPRESENTATION ( #90, #29 ) ;
#175 = ORIENTED_EDGE ( 'NONE', *, *, #80, .F. ) ;
#176 = PRODUCT_RELATED_PRODUCT_CATEGORY ( 'part', '', ( #4 ) ) ;
#177 = EDGE_CURVE ( 'NONE', #89, #9, #173, .T. ) ;
#178 = ORIENTED_EDGE ( 'NONE', *, *, #6, .F. ) ;
#179 = FACE_OUTER_BOUND ( 'NONE', #95, .T. ) ;
#180 = ORIENTED_EDGE ( 'NONE', *, *, #11, .F. ) ;
#181 = PRESENTATION_LAYER_ASSIGNMENT (  '', '', ( #26 ) ) ;
#182 =( GEOMETRIC_REPRESENTATION_CONTEXT ( 3 ) GLOBAL_UNCERTAINTY_ASSIGNED_CONTEXT ( ( #101 ) ) GLOBAL_UNIT_ASSIGNED_CONTEXT ( ( #32, #39, #110 ) ) REPRESENTATION_CONTEXT ( 'NONE', 'WORKASPACE' ) );
#183 = DIRECTION ( 'NONE',  ( 0.0000000000000000000, 0.0000000000000000000, 1.000000000000000000 ) ) ;
#184 = DIRECTION ( 'NONE',  ( 0.0000000000000000000, 1.000000000000000000, 0.0000000000000000000 ) ) ;
#185 = ADVANCED_FACE ( 'NONE', ( #179 ), #77, .F. ) ;
#186 = ADVANCED_FACE ( 'NONE', ( #142 ), #53, .T. ) ;
ENDSEC;
END-ISO-10303-21;
