ISO-10303-21;
HEADER;
FILE_DESCRIPTION (( 'STEP AP203' ),
    '1' );
FILE_NAME ('110169.STEP',
    '2024-05-10T06:08:18',
    ( '' ),
    ( '' ),
    'SwSTEP 2.0',
    'SolidWorks 2020',
    '' );
FILE_SCHEMA (( 'CONFIG_CONTROL_DESIGN' ));
ENDSEC;

DATA;
#1 = CALENDAR_DATE ( 2024, 10, 5 ) ;
#2 = EDGE_CURVE ( 'NONE', #103, #55, #69, .T. ) ;
#3 = DIRECTION ( 'NONE',  ( 0.000000000000000000, 0.000000000000000000, 1.000000000000000000 ) ) ;
#4 = APPLICATION_CONTEXT ( 'configuration controlled 3d designs of mechanical parts and assemblies' ) ;
#5 = APPROVAL_PERSON_ORGANIZATION ( #75, #71, #131 ) ;
#6 = DATE_AND_TIME ( #171, #164 ) ;
#7 = CIRCLE ( 'NONE', #112, 30.61999999999999744 ) ;
#8 = PERSON_AND_ORGANIZATION_ROLE ( 'design_owner' ) ;
#9 = CARTESIAN_POINT ( 'NONE',  ( -1.250000000000013323, 3.889618792569028588E-15, 0.000000000000000000 ) ) ;
#10 = DIRECTION ( 'NONE',  ( 1.699598441518752813E-15, 1.000000000000000000, 0.000000000000000000 ) ) ;
#11 = ORIENTED_EDGE ( 'NONE', *, *, #155, .F. ) ;
#12 = LINE ( 'NONE', #226, #66 ) ;
#13 = CYLINDRICAL_SURFACE ( 'NONE', #91, 7.499999999999996447 ) ;
#14 = PERSON_AND_ORGANIZATION ( #132, #59 ) ;
#15 = PRODUCT_DEFINITION_FORMATION_WITH_SPECIFIED_SOURCE ( 'ÈÎºÎ', '', #85, .NOT_KNOWN. ) ;
#16 = ORIENTED_EDGE ( 'NONE', *, *, #2, .T. ) ;
#17 = CIRCLE ( 'NONE', #40, 7.499999999999994671 ) ;
#18 = CC_DESIGN_SECURITY_CLASSIFICATION ( #199, ( #15 ) ) ;
#19 = DIRECTION ( 'NONE',  ( -1.676899360110913656E-15, -1.000000000000000000, 0.000000000000000000 ) ) ;
#20 = ADVANCED_FACE ( 'NONE', ( #168 ), #49, .T. ) ;
#21 = APPROVAL_DATE_TIME ( #72, #58 ) ;
#22 = CC_DESIGN_APPROVAL ( #34, ( #199 ) ) ;
#23 = PERSON_AND_ORGANIZATION_ROLE ( 'creator' ) ;
#24 = CC_DESIGN_PERSON_AND_ORGANIZATION_ASSIGNMENT ( #90, #169, ( #15 ) ) ;
#25 = CIRCLE ( 'NONE', #156, 7.499999999999999112 ) ;
#26 = PERSON_AND_ORGANIZATION ( #132, #59 ) ;
#27 = DIRECTION ( 'NONE',  ( 1.000000000000000000, 0.000000000000000000, 0.000000000000000000 ) ) ;
#28 = CARTESIAN_POINT ( 'NONE',  ( 1.249999999999972022, -7.500000000000051514, -9.184850993605144000E-16 ) ) ;
#29 = AXIS2_PLACEMENT_3D ( 'NONE', #35, #116, #222 ) ;
#30 = DIRECTION ( 'NONE',  ( 0.000000000000000000, 0.000000000000000000, -1.000000000000000000 ) ) ;
#31 = ORIENTED_EDGE ( 'NONE', *, *, #63, .F. ) ;
#32 = DIRECTION ( 'NONE',  ( -1.000000000000000000, 1.671243068617843272E-15, -0.000000000000000000 ) ) ;
#33 = DIRECTION ( 'NONE',  ( 0.000000000000000000, 0.000000000000000000, 1.000000000000000000 ) ) ;
#34 = APPROVAL ( #184, 'Î´Ö¸¶¨' ) ;
#35 = CARTESIAN_POINT ( 'NONE',  ( -28.43727673600258044, -5.597164667859091817E-15, 0.000000000000000000 ) ) ;
#36 = EDGE_LOOP ( 'NONE', ( #51, #16, #11, #180 ) ) ;
#37 = APPROVAL_ROLE ( '' ) ;
#38 = LOCAL_TIME ( 14, 8, 18.00000000000000000, #149 ) ;
#39 = DIRECTION ( 'NONE',  ( 2.046682474580042031E-31, 1.224646799147353207E-16, -1.000000000000000000 ) ) ;
#40 = AXIS2_PLACEMENT_3D ( 'NONE', #9, #81, #223 ) ;
#41 = ADVANCED_FACE ( 'NONE', ( #194 ), #113, .T. ) ;
#42 = CALENDAR_DATE ( 2024, 10, 5 ) ;
#43 = DATE_TIME_ROLE ( 'classification_date' ) ;
#44 = APPLICATION_PROTOCOL_DEFINITION ( 'international standard', 'config_control_design', 1994, #4 ) ;
#45 = CC_DESIGN_PERSON_AND_ORGANIZATION_ASSIGNMENT ( #106, #204, ( #15 ) ) ;
#46 = EDGE_CURVE ( 'NONE', #143, #103, #50, .T. ) ;
#47 = CIRCLE ( 'NONE', #133, 30.62000000000000099 ) ;
#48 = CARTESIAN_POINT ( 'NONE',  ( -28.43727673600258044, -5.597164667859091817E-15, 0.000000000000000000 ) ) ;
#49 = SPHERICAL_SURFACE ( 'NONE', #218, 30.61999999999999744 ) ;
#50 = CIRCLE ( 'NONE', #153, 7.499999999999999112 ) ;
#51 = ORIENTED_EDGE ( 'NONE', *, *, #46, .T. ) ;
#52 = CARTESIAN_POINT ( 'NONE',  ( -1.250000000000025535, -7.499999999999951150, -9.184850993605151889E-16 ) ) ;
#53 = CARTESIAN_POINT ( 'NONE',  ( -1.249999999999999112, 7.500000000000006217, 0.000000000000000000 ) ) ;
#54 = DATE_AND_TIME ( #42, #211 ) ;
#55 = VERTEX_POINT ( 'NONE', #53 ) ;
#56 = APPROVAL_STATUS ( 'not_yet_approved' ) ;
#57 = PERSON_AND_ORGANIZATION ( #132, #59 ) ;
#58 = APPROVAL ( #56, 'Î´Ö¸¶¨' ) ;
#59 = ORGANIZATION ( 'Î´Ö¸¶¨', 'Î´Ö¸¶¨', '' ) ;
#60 = DIRECTION ( 'NONE',  ( 0.000000000000000000, 0.000000000000000000, -1.000000000000000000 ) ) ;
#61 = SPHERICAL_SURFACE ( 'NONE', #183, 30.61999999999999744 ) ;
#62 = CARTESIAN_POINT ( 'NONE',  ( -2.182723263997422336, 5.448426082463308877E-15, 0.000000000000000000 ) ) ;
#63 = EDGE_CURVE ( 'NONE', #84, #143, #174, .T. ) ;
#64 = SHAPE_DEFINITION_REPRESENTATION ( #212, #76 ) ;
#65 = VERTEX_POINT ( 'NONE', #225 ) ;
#66 = VECTOR ( 'NONE', #119, 1000.000000000000000 ) ;
#67 = CARTESIAN_POINT ( 'NONE',  ( -1.250000000000013323, 3.889618792569028588E-15, 0.000000000000000000 ) ) ;
#68 = ORIENTED_EDGE ( 'NONE', *, *, #46, .F. ) ;
#69 = LINE ( 'NONE', #148, #130 ) ;
#70 = CARTESIAN_POINT ( 'NONE',  ( 0.000000000000000000, 0.000000000000000000, 0.000000000000000000 ) ) ;
#71 = APPROVAL ( #154, 'Î´Ö¸¶¨' ) ;
#72 = DATE_AND_TIME ( #1, #206 ) ;
#73 = APPROVAL_PERSON_ORGANIZATION ( #217, #58, #202 ) ;
#74 = CALENDAR_DATE ( 2024, 10, 5 ) ;
#75 = PERSON_AND_ORGANIZATION ( #132, #59 ) ;
#76 = ADVANCED_BREP_SHAPE_REPRESENTATION ( '110169', ( #128, #213 ), #150 ) ;
#77 = ADVANCED_FACE ( 'NONE', ( #207 ), #158, .T. ) ;
#78 = DIRECTION ( 'NONE',  ( 0.000000000000000000, 0.000000000000000000, 1.000000000000000000 ) ) ;
#79 = CARTESIAN_POINT ( 'NONE',  ( 2.182723263997418783, -5.489569317944285657E-14, 0.000000000000000000 ) ) ;
#80 = ORIENTED_EDGE ( 'NONE', *, *, #125, .F. ) ;
#81 = DIRECTION ( 'NONE',  ( -1.000000000000000000, 1.671243068617843272E-15, -0.000000000000000000 ) ) ;
#82 = DIRECTION ( 'NONE',  ( -1.000000000000000000, 1.671243068617843272E-15, -0.000000000000000000 ) ) ;
#83 = ADVANCED_FACE ( 'NONE', ( #137 ), #196, .T. ) ;
#84 = VERTEX_POINT ( 'NONE', #79 ) ;
#85 = PRODUCT ( '110169', '110169', '', ( #167 ) ) ;
#86 = VERTEX_POINT ( 'NONE', #52 ) ;
#87 =( NAMED_UNIT ( * ) PLANE_ANGLE_UNIT ( ) SI_UNIT ( $, .RADIAN. ) );
#88 = EDGE_LOOP ( 'NONE', ( #105, #163, #124 ) ) ;
#89 = APPLICATION_PROTOCOL_DEFINITION ( 'international standard', 'config_control_design', 1994, #134 ) ;
#90 = PERSON_AND_ORGANIZATION ( #132, #59 ) ;
#91 = AXIS2_PLACEMENT_3D ( 'NONE', #62, #82, #135 ) ;
#92 = PERSON_AND_ORGANIZATION_ROLE ( 'classification_officer' ) ;
#93 = CARTESIAN_POINT ( 'NONE',  ( 28.43727673600258044, 1.698557583474112835E-15, 0.000000000000000000 ) ) ;
#94 = CARTESIAN_POINT ( 'NONE',  ( 28.43727673600258044, 1.698557583474112835E-15, 0.000000000000000000 ) ) ;
#95 = ORIENTED_EDGE ( 'NONE', *, *, #63, .T. ) ;
#96 = CARTESIAN_POINT ( 'NONE',  ( 28.43727673600258044, 1.698557583474112835E-15, 0.000000000000000000 ) ) ;
#97 = FACE_OUTER_BOUND ( 'NONE', #165, .T. ) ;
#98 = CARTESIAN_POINT ( 'NONE',  ( -28.43727673600258044, -5.597164667859091817E-15, 0.000000000000000000 ) ) ;
#99 = CC_DESIGN_APPROVAL ( #58, ( #144 ) ) ;
#100 = APPROVAL_DATE_TIME ( #54, #34 ) ;
#101 = AXIS2_PLACEMENT_3D ( 'NONE', #177, #32, #210 ) ;
#102 = CARTESIAN_POINT ( 'NONE',  ( 1.249999999999986899, -2.884888789755795925E-16, 0.000000000000000000 ) ) ;
#103 = VERTEX_POINT ( 'NONE', #111 ) ;
#104 = EDGE_CURVE ( 'NONE', #143, #86, #12, .T. ) ;
#105 = ORIENTED_EDGE ( 'NONE', *, *, #172, .F. ) ;
#106 = PERSON_AND_ORGANIZATION ( #132, #59 ) ;
#107 = COORDINATED_UNIVERSAL_TIME_OFFSET ( 8, 0, .AHEAD. ) ;
#108 = AXIS2_PLACEMENT_3D ( 'NONE', #67, #122, #185 ) ;
#109 = CC_DESIGN_PERSON_AND_ORGANIZATION_ASSIGNMENT ( #57, #23, ( #144 ) ) ;
#110 = LOCAL_TIME ( 14, 8, 18.00000000000000000, #107 ) ;
#111 = CARTESIAN_POINT ( 'NONE',  ( 1.250000000000000222, 7.499999999999996447, 0.000000000000000000 ) ) ;
#112 = AXIS2_PLACEMENT_3D ( 'NONE', #220, #33, #198 ) ;
#113 = SPHERICAL_SURFACE ( 'NONE', #203, 30.62000000000000099 ) ;
#114 = ORIENTED_EDGE ( 'NONE', *, *, #197, .T. ) ;
#115 = ADVANCED_FACE ( 'NONE', ( #97 ), #61, .T. ) ;
#116 = DIRECTION ( 'NONE',  ( 2.046682474580042031E-31, 1.224646799147353207E-16, -1.000000000000000000 ) ) ;
#117 = DIRECTION ( 'NONE',  ( 1.699598441518753010E-15, 1.000000000000000000, 0.000000000000000000 ) ) ;
#118 = UNCERTAINTY_MEASURE_WITH_UNIT (LENGTH_MEASURE( 1.000000000000000082E-05 ), #189, 'distance_accuracy_value', 'NONE');
#119 = DIRECTION ( 'NONE',  ( -1.000000000000000000, 1.671243068617843272E-15, -0.000000000000000000 ) ) ;
#120 = EDGE_LOOP ( 'NONE', ( #227, #195, #126, #138 ) ) ;
#121 = CC_DESIGN_DATE_AND_TIME_ASSIGNMENT ( #6, #43, ( #199 ) ) ;
#122 = DIRECTION ( 'NONE',  ( -1.000000000000000000, 1.671243068617843272E-15, -0.000000000000000000 ) ) ;
#123 = CIRCLE ( 'NONE', #108, 7.499999999999994671 ) ;
#124 = ORIENTED_EDGE ( 'NONE', *, *, #224, .T. ) ;
#125 = EDGE_CURVE ( 'NONE', #84, #103, #7, .T. ) ;
#126 = ORIENTED_EDGE ( 'NONE', *, *, #104, .T. ) ;
#127 = CALENDAR_DATE ( 2024, 10, 5 ) ;
#128 = MANIFOLD_SOLID_BREP ( 'Ðý×ª1', #136 ) ;
#129 = COORDINATED_UNIVERSAL_TIME_OFFSET ( 8, 0, .AHEAD. ) ;
#130 = VECTOR ( 'NONE', #215, 1000.000000000000000 ) ;
#131 = APPROVAL_ROLE ( '' ) ;
#132 = PERSON ( 'Î´Ö¸¶¨', 'Î´Ö¸¶¨', 'Î´Ö¸¶¨', ('Î´Ö¸¶¨'), ('Î´Ö¸¶¨'), ('Î´Ö¸¶¨') ) ;
#133 = AXIS2_PLACEMENT_3D ( 'NONE', #96, #39, #162 ) ;
#134 = APPLICATION_CONTEXT ( 'configuration controlled 3d designs of mechanical parts and assemblies' ) ;
#135 = DIRECTION ( 'NONE',  ( -1.676899360110914248E-15, -1.000000000000000000, 0.000000000000000000 ) ) ;
#136 = CLOSED_SHELL ( 'NONE', ( #83, #115, #77, #41, #20, #166 ) ) ;
#137 = FACE_OUTER_BOUND ( 'NONE', #36, .T. ) ;
#138 = ORIENTED_EDGE ( 'NONE', *, *, #197, .F. ) ;
#139 = DIRECTION ( 'NONE',  ( 0.000000000000000000, 0.000000000000000000, -1.000000000000000000 ) ) ;
#140 = CARTESIAN_POINT ( 'NONE',  ( 1.249999999999986899, -2.884888789755795925E-16, 0.000000000000000000 ) ) ;
#141 = EDGE_LOOP ( 'NONE', ( #31, #201, #68 ) ) ;
#142 = COORDINATED_UNIVERSAL_TIME_OFFSET ( 8, 0, .AHEAD. ) ;
#143 = VERTEX_POINT ( 'NONE', #28 ) ;
#144 = PRODUCT_DEFINITION ( 'Î´Öª', '', #15, #159 ) ;
#145 = ORIENTED_EDGE ( 'NONE', *, *, #224, .F. ) ;
#146 = DIRECTION ( 'NONE',  ( -1.000000000000000000, 1.671243068617843272E-15, -0.000000000000000000 ) ) ;
#147 = DATE_TIME_ROLE ( 'creation_date' ) ;
#148 = CARTESIAN_POINT ( 'NONE',  ( -2.182723263997409457, 7.500000000000001776, 9.184850993605144000E-16 ) ) ;
#149 = COORDINATED_UNIVERSAL_TIME_OFFSET ( 8, 0, .AHEAD. ) ;
#150 =( GEOMETRIC_REPRESENTATION_CONTEXT ( 3 ) GLOBAL_UNCERTAINTY_ASSIGNED_CONTEXT ( ( #118 ) ) GLOBAL_UNIT_ASSIGNED_CONTEXT ( ( #189, #87, #219 ) ) REPRESENTATION_CONTEXT ( 'NONE', 'WORKASPACE' ) );
#151 = CC_DESIGN_PERSON_AND_ORGANIZATION_ASSIGNMENT ( #26, #92, ( #199 ) ) ;
#152 = DATE_AND_TIME ( #74, #110 ) ;
#153 = AXIS2_PLACEMENT_3D ( 'NONE', #140, #157, #175 ) ;
#154 = APPROVAL_STATUS ( 'not_yet_approved' ) ;
#155 = EDGE_CURVE ( 'NONE', #86, #55, #17, .T. ) ;
#156 = AXIS2_PLACEMENT_3D ( 'NONE', #102, #146, #19 ) ;
#157 = DIRECTION ( 'NONE',  ( -1.000000000000000000, 1.671243068617843272E-15, -0.000000000000000000 ) ) ;
#158 = SPHERICAL_SURFACE ( 'NONE', #193, 30.62000000000000099 ) ;
#159 = DESIGN_CONTEXT ( 'detailed design', #4, 'design' ) ;
#160 = DIRECTION ( 'NONE',  ( 1.699598441518752813E-15, 1.000000000000000000, 0.000000000000000000 ) ) ;
#161 = CC_DESIGN_DATE_AND_TIME_ASSIGNMENT ( #152, #147, ( #144 ) ) ;
#162 = DIRECTION ( 'NONE',  ( 0.000000000000000000, 1.000000000000000000, 1.224646799147353454E-16 ) ) ;
#163 = ORIENTED_EDGE ( 'NONE', *, *, #155, .T. ) ;
#164 = LOCAL_TIME ( 14, 8, 18.00000000000000000, #200 ) ;
#165 = EDGE_LOOP ( 'NONE', ( #80, #95, #176 ) ) ;
#166 = ADVANCED_FACE ( 'NONE', ( #178 ), #13, .T. ) ;
#167 = MECHANICAL_CONTEXT ( 'NONE', #134, 'mechanical' ) ;
#168 = FACE_OUTER_BOUND ( 'NONE', #141, .T. ) ;
#169 = PERSON_AND_ORGANIZATION_ROLE ( 'design_supplier' ) ;
#170 = CC_DESIGN_APPROVAL ( #71, ( #15 ) ) ;
#171 = CALENDAR_DATE ( 2024, 10, 5 ) ;
#172 = EDGE_CURVE ( 'NONE', #86, #65, #47, .T. ) ;
#173 = DIRECTION ( 'NONE',  ( 1.000000000000000000, 0.000000000000000000, 0.000000000000000000 ) ) ;
#174 = CIRCLE ( 'NONE', #29, 30.61999999999999744 ) ;
#175 = DIRECTION ( 'NONE',  ( -1.676899360110913656E-15, -1.000000000000000000, 0.000000000000000000 ) ) ;
#176 = ORIENTED_EDGE ( 'NONE', *, *, #209, .F. ) ;
#177 = CARTESIAN_POINT ( 'NONE',  ( -2.182723263997422336, 5.448426082463308877E-15, 0.000000000000000000 ) ) ;
#178 = FACE_OUTER_BOUND ( 'NONE', #120, .T. ) ;
#179 = DIRECTION ( 'NONE',  ( 0.000000000000000000, 0.000000000000000000, -1.000000000000000000 ) ) ;
#180 = ORIENTED_EDGE ( 'NONE', *, *, #104, .F. ) ;
#181 = AXIS2_PLACEMENT_3D ( 'NONE', #93, #78, #173 ) ;
#182 = ORIENTED_EDGE ( 'NONE', *, *, #172, .T. ) ;
#183 = AXIS2_PLACEMENT_3D ( 'NONE', #48, #139, #117 ) ;
#184 = APPROVAL_STATUS ( 'not_yet_approved' ) ;
#185 = DIRECTION ( 'NONE',  ( -1.676899360110914642E-15, -1.000000000000000000, 0.000000000000000000 ) ) ;
#186 = APPROVAL_DATE_TIME ( #216, #71 ) ;
#187 = APPROVAL_PERSON_ORGANIZATION ( #14, #34, #37 ) ;
#188 = SECURITY_CLASSIFICATION_LEVEL ( 'unclassified' ) ;
#189 =( LENGTH_UNIT ( ) NAMED_UNIT ( * ) SI_UNIT ( .MILLI., .METRE. ) );
#190 = CC_DESIGN_PERSON_AND_ORGANIZATION_ASSIGNMENT ( #205, #8, ( #85 ) ) ;
#191 = PRODUCT_RELATED_PRODUCT_CATEGORY ( 'detail', '', ( #85 ) ) ;
#192 = CARTESIAN_POINT ( 'NONE',  ( 28.43727673600258044, 1.698557583474112835E-15, 0.000000000000000000 ) ) ;
#193 = AXIS2_PLACEMENT_3D ( 'NONE', #192, #60, #160 ) ;
#194 = FACE_OUTER_BOUND ( 'NONE', #88, .T. ) ;
#195 = ORIENTED_EDGE ( 'NONE', *, *, #209, .T. ) ;
#196 = CYLINDRICAL_SURFACE ( 'NONE', #101, 7.499999999999996447 ) ;
#197 = EDGE_CURVE ( 'NONE', #55, #86, #123, .T. ) ;
#198 = DIRECTION ( 'NONE',  ( 1.000000000000000000, 0.000000000000000000, 0.000000000000000000 ) ) ;
#199 = SECURITY_CLASSIFICATION ( '', '', #188 ) ;
#200 = COORDINATED_UNIVERSAL_TIME_OFFSET ( 8, 0, .AHEAD. ) ;
#201 = ORIENTED_EDGE ( 'NONE', *, *, #125, .T. ) ;
#202 = APPROVAL_ROLE ( '' ) ;
#203 = AXIS2_PLACEMENT_3D ( 'NONE', #94, #179, #10 ) ;
#204 = PERSON_AND_ORGANIZATION_ROLE ( 'creator' ) ;
#205 = PERSON_AND_ORGANIZATION ( #132, #59 ) ;
#206 = LOCAL_TIME ( 14, 8, 18.00000000000000000, #129 ) ;
#207 = FACE_OUTER_BOUND ( 'NONE', #214, .T. ) ;
#208 = DIRECTION ( 'NONE',  ( 1.699598441518753010E-15, 1.000000000000000000, 0.000000000000000000 ) ) ;
#209 = EDGE_CURVE ( 'NONE', #103, #143, #25, .T. ) ;
#210 = DIRECTION ( 'NONE',  ( -1.676899360110914248E-15, -1.000000000000000000, 0.000000000000000000 ) ) ;
#211 = LOCAL_TIME ( 14, 8, 18.00000000000000000, #142 ) ;
#212 = PRODUCT_DEFINITION_SHAPE ( 'NONE', 'NONE',  #144 ) ;
#213 = AXIS2_PLACEMENT_3D ( 'NONE', #70, #3, #27 ) ;
#214 = EDGE_LOOP ( 'NONE', ( #114, #182, #145 ) ) ;
#215 = DIRECTION ( 'NONE',  ( -1.000000000000000000, 1.671243068617843272E-15, -0.000000000000000000 ) ) ;
#216 = DATE_AND_TIME ( #127, #38 ) ;
#217 = PERSON_AND_ORGANIZATION ( #132, #59 ) ;
#218 = AXIS2_PLACEMENT_3D ( 'NONE', #98, #30, #208 ) ;
#219 =( NAMED_UNIT ( * ) SI_UNIT ( $, .STERADIAN. ) SOLID_ANGLE_UNIT ( ) );
#220 = CARTESIAN_POINT ( 'NONE',  ( -28.43727673600258044, -5.597164667859091817E-15, 0.000000000000000000 ) ) ;
#221 = CIRCLE ( 'NONE', #181, 30.62000000000000455 ) ;
#222 = DIRECTION ( 'NONE',  ( 0.000000000000000000, 1.000000000000000000, 1.224646799147353207E-16 ) ) ;
#223 = DIRECTION ( 'NONE',  ( -1.676899360110914642E-15, -1.000000000000000000, 0.000000000000000000 ) ) ;
#224 = EDGE_CURVE ( 'NONE', #55, #65, #221, .T. ) ;
#225 = CARTESIAN_POINT ( 'NONE',  ( -2.182723263997422336, 5.474695459404707206E-14, 0.000000000000000000 ) ) ;
#226 = CARTESIAN_POINT ( 'NONE',  ( -2.182723263997434771, -7.499999999999991118, 0.000000000000000000 ) ) ;
#227 = ORIENTED_EDGE ( 'NONE', *, *, #2, .F. ) ;
ENDSEC;
END-ISO-10303-21;
