ISO-10303-21;
HEADER;
FILE_DESCRIPTION (( 'STEP AP203' ),
    '1' );
FILE_NAME ('110159.STEP',
    '2019-07-09T05:46:40',
    ( '' ),
    ( '' ),
    'SwSTEP 2.0',
    'SolidWorks 2016',
    '' );
FILE_SCHEMA (( 'CONFIG_CONTROL_DESIGN' ));
ENDSEC;

DATA;
#1 = DIRECTION ( 'NONE',  ( -1.000000000000000000, -0.0000000000000000000, -0.0000000000000000000 ) ) ;
#2 = CC_DESIGN_PERSON_AND_ORGANIZATION_ASSIGNMENT ( #48, #5, ( #14 ) ) ;
#3 = PERSON_AND_ORGANIZATION ( #273, #161 ) ;
#4 = DIRECTION ( 'NONE',  ( 0.0000000000000000000, -1.000000000000000000, 0.0000000000000000000 ) ) ;
#5 = PERSON_AND_ORGANIZATION_ROLE ( 'design_supplier' ) ;
#6 = AXIS2_PLACEMENT_3D ( 'NONE', #309, #236, #188 ) ;
#7 = DATE_TIME_ROLE ( 'classification_date' ) ;
#8 = APPROVAL_STATUS ( 'not_yet_approved' ) ;
#9 = PERSON_AND_ORGANIZATION ( #273, #161 ) ;
#10 = EDGE_CURVE ( 'NONE', #18, #61, #337, .T. ) ;
#11 = CIRCLE ( 'NONE', #36, 536.6516807902423800 ) ;
#12 = DESIGN_CONTEXT ( 'detailed design', #207, 'design' ) ;
#13 = DATE_AND_TIME ( #240, #235 ) ;
#14 = PRODUCT_DEFINITION_FORMATION_WITH_SPECIFIED_SOURCE ( 'ÈÎºÎ', '', #169, .NOT_KNOWN. ) ;
#15 = ORIENTED_EDGE ( 'NONE', *, *, #16, .T. ) ;
#16 = EDGE_CURVE ( 'NONE', #70, #299, #119, .T. ) ;
#17 = LOCAL_TIME ( 13, 46, 40.00000000000000000, #298 ) ;
#18 = VERTEX_POINT ( 'NONE', #122 ) ;
#19 = CC_DESIGN_APPROVAL ( #177, ( #261 ) ) ;
#20 = DIRECTION ( 'NONE',  ( 0.0000000000000000000, 1.000000000000000000, 1.224646799147353200E-016 ) ) ;
#21 = EDGE_CURVE ( 'NONE', #70, #325, #211, .T. ) ;
#22 = CARTESIAN_POINT ( 'NONE',  ( 85.45852234609110100, 35.91611302318612100, -1.555301434916673200E-015 ) ) ;
#23 = PERSON_AND_ORGANIZATION ( #273, #161 ) ;
#24 = AXIS2_PLACEMENT_3D ( 'NONE', #238, #212, #94 ) ;
#25 = CARTESIAN_POINT ( 'NONE',  ( 621.9599077077622300, 48.61611302318232200, 0.0000000000000000000 ) ) ;
#26 = APPROVAL ( #35, 'Î´Ö¸¶¨' ) ;
#27 = CALENDAR_DATE ( 2019, 9, 7 ) ;
#28 = ORIENTED_EDGE ( 'NONE', *, *, #163, .T. ) ;
#29 = DIRECTION ( 'NONE',  ( 0.0000000000000000000, 0.0000000000000000000, 1.000000000000000000 ) ) ;
#30 = APPROVAL_STATUS ( 'not_yet_approved' ) ;
#31 = CIRCLE ( 'NONE', #87, 536.6516807902423800 ) ;
#32 = PERSON_AND_ORGANIZATION_ROLE ( 'creator' ) ;
#33 = PRODUCT_RELATED_PRODUCT_CATEGORY ( 'detail', '', ( #169 ) ) ;
#34 = APPROVAL_ROLE ( '' ) ;
#35 = APPROVAL_STATUS ( 'not_yet_approved' ) ;
#36 = AXIS2_PLACEMENT_3D ( 'NONE', #263, #132, #20 ) ;
#37 = CALENDAR_DATE ( 2019, 9, 7 ) ;
#38 = PRODUCT_DEFINITION ( 'Î´Öª', '', #63, #12 ) ;
#39 = SPHERICAL_SURFACE ( 'NONE', #209, 536.6516807900296700 ) ;
#40 = DIRECTION ( 'NONE',  ( -1.000000000000000000, -0.0000000000000000000, -0.0000000000000000000 ) ) ;
#41 = PERSON_AND_ORGANIZATION ( #273, #161 ) ;
#42 = AXIS2_PLACEMENT_3D ( 'NONE', #141, #29, #4 ) ;
#43 = DIRECTION ( 'NONE',  ( -1.000000000000000000, -0.0000000000000000000, -0.0000000000000000000 ) ) ;
#44 = APPROVAL_PERSON_ORGANIZATION ( #190, #198, #151 ) ;
#45 = ORIENTED_EDGE ( 'NONE', *, *, #10, .F. ) ;
#46 = CARTESIAN_POINT ( 'NONE',  ( 621.9599077077622300, 48.61611302318232200, 0.0000000000000000000 ) ) ;
#47 = CC_DESIGN_PERSON_AND_ORGANIZATION_ASSIGNMENT ( #103, #275, ( #267 ) ) ;
#48 = PERSON_AND_ORGANIZATION ( #273, #161 ) ;
#49 = LOCAL_TIME ( 13, 46, 40.00000000000000000, #333 ) ;
#50 = CIRCLE ( 'NONE', #345, 12.69999999999999600 ) ;
#51 = AXIS2_PLACEMENT_3D ( 'NONE', #194, #162, #98 ) ;
#52 = CARTESIAN_POINT ( 'NONE',  ( 85.45852234609111500, 48.61611302318478100, 0.0000000000000000000 ) ) ;
#53 = CC_DESIGN_PERSON_AND_ORGANIZATION_ASSIGNMENT ( #9, #116, ( #148 ) ) ;
#54 = APPROVAL_PERSON_ORGANIZATION ( #278, #177, #55 ) ;
#55 = APPROVAL_ROLE ( '' ) ;
#56 = APPLICATION_PROTOCOL_DEFINITION ( 'international standard', 'config_control_design', 1994, #302 ) ;
#57 = PERSON_AND_ORGANIZATION ( #273, #161 ) ;
#58 = APPROVAL_STATUS ( 'not_yet_approved' ) ;
#59 = PERSON_AND_ORGANIZATION ( #273, #161 ) ;
#60 = FACE_OUTER_BOUND ( 'NONE', #180, .T. ) ;
#61 = VERTEX_POINT ( 'NONE', #259 ) ;
#62 = SECURITY_CLASSIFICATION_LEVEL ( 'unclassified' ) ;
#63 = PRODUCT_DEFINITION_FORMATION_WITH_SPECIFIED_SOURCE ( 'ÈÎºÎ', '', #267, .NOT_KNOWN. ) ;
#64 = AXIS2_PLACEMENT_3D ( 'NONE', #319, #82, #204 ) ;
#65 = COORDINATED_UNIVERSAL_TIME_OFFSET ( 8, 0, .AHEAD. ) ;
#66 = ORIENTED_EDGE ( 'NONE', *, *, #246, .F. ) ;
#67 = APPROVAL_DATE_TIME ( #118, #177 ) ;
#68 = CC_DESIGN_PERSON_AND_ORGANIZATION_ASSIGNMENT ( #210, #110, ( #38 ) ) ;
#69 = LOCAL_TIME ( 13, 46, 40.00000000000000000, #152 ) ;
#70 = VERTEX_POINT ( 'NONE', #92 ) ;
#71 = DIRECTION ( 'NONE',  ( 0.0000000000000000000, 0.0000000000000000000, 1.000000000000000000 ) ) ;
#72 = AXIS2_PLACEMENT_3D ( 'NONE', #285, #222, #243 ) ;
#73 = ORIENTED_EDGE ( 'NONE', *, *, #305, .F. ) ;
#74 = DATE_AND_TIME ( #114, #49 ) ;
#75 = EDGE_CURVE ( 'NONE', #18, #325, #165, .T. ) ;
#76 = CARTESIAN_POINT ( 'NONE',  ( 87.45786520323396500, 48.61611302318478100, 0.0000000000000000000 ) ) ;
#77 = DATE_AND_TIME ( #205, #323 ) ;
#78 = DIRECTION ( 'NONE',  ( 0.0000000000000000000, 0.0000000000000000000, 1.000000000000000000 ) ) ;
#79 = AXIS2_PLACEMENT_3D ( 'NONE', #228, #317, #168 ) ;
#80 = CIRCLE ( 'NONE', #229, 12.69999999999999600 ) ;
#81 = DIRECTION ( 'NONE',  ( 1.000000000000000000, 0.0000000000000000000, 0.0000000000000000000 ) ) ;
#82 = DIRECTION ( 'NONE',  ( 0.0000000000000000000, 0.0000000000000000000, 1.000000000000000000 ) ) ;
#83 = APPROVAL_STATUS ( 'not_yet_approved' ) ;
#84 = COORDINATED_UNIVERSAL_TIME_OFFSET ( 8, 0, .AHEAD. ) ;
#85 = CC_DESIGN_DATE_AND_TIME_ASSIGNMENT ( #274, #144, ( #277 ) ) ;
#86 = MECHANICAL_CONTEXT ( 'NONE', #300, 'mechanical' ) ;
#87 = AXIS2_PLACEMENT_3D ( 'NONE', #175, #322, #81 ) ;
#88 = ORIENTED_EDGE ( 'NONE', *, *, #16, .F. ) ;
#89 = CC_DESIGN_APPROVAL ( #198, ( #38 ) ) ;
#90 = EDGE_CURVE ( 'NONE', #227, #279, #50, .T. ) ;
#91 = SPHERICAL_SURFACE ( 'NONE', #127, 536.6516807902423800 ) ;
#92 = CARTESIAN_POINT ( 'NONE',  ( 87.60816063180543300, 48.61611302318646500, 0.0000000000000000000 ) ) ;
#93 = AXIS2_PLACEMENT_3D ( 'NONE', #131, #43, #129 ) ;
#94 = DIRECTION ( 'NONE',  ( 0.0000000000000000000, 0.0000000000000000000, 1.000000000000000000 ) ) ;
#95 = CARTESIAN_POINT ( 'NONE',  ( 79.30540135083715800, 48.61611302318478100, -12.69999999999999600 ) ) ;
#96 = CC_DESIGN_DATE_AND_TIME_ASSIGNMENT ( #13, #253, ( #261 ) ) ;
#97 = ADVANCED_FACE ( 'NONE', ( #329 ), #231, .T. ) ;
#98 = DIRECTION ( 'NONE',  ( 0.0000000000000000000, 0.0000000000000000000, 1.000000000000000000 ) ) ;
#99 = VECTOR ( 'NONE', #269, 1000.000000000000000 ) ;
#100 = CARTESIAN_POINT ( 'NONE',  ( 85.30822691751981800, 48.61611302318235800, 0.0000000000000000000 ) ) ;
#101 = DIRECTION ( 'NONE',  ( 0.0000000000000000000, 0.0000000000000000000, 1.000000000000000000 ) ) ;
#102 = DIRECTION ( 'NONE',  ( 0.0000000000000000000, 0.0000000000000000000, 1.000000000000000000 ) ) ;
#103 = PERSON_AND_ORGANIZATION ( #273, #161 ) ;
#104 = DIRECTION ( 'NONE',  ( 0.0000000000000000000, 0.0000000000000000000, 1.000000000000000000 ) ) ;
#105 = CARTESIAN_POINT ( 'NONE',  ( 85.45852234609111500, 48.61611302318478100, 0.0000000000000000000 ) ) ;
#106 = APPROVAL ( #58, 'Î´Ö¸¶¨' ) ;
#107 = SECURITY_CLASSIFICATION_LEVEL ( 'unclassified' ) ;
#108 = CC_DESIGN_APPROVAL ( #159, ( #14 ) ) ;
#109 = CYLINDRICAL_SURFACE ( 'NONE', #72, 12.69999999999999600 ) ;
#110 = PERSON_AND_ORGANIZATION_ROLE ( 'creator' ) ;
#111 = AXIS2_PLACEMENT_3D ( 'NONE', #76, #245, #78 ) ;
#112 = APPLICATION_CONTEXT ( 'configuration controlled 3d designs of mechanical parts and assemblies' ) ;
#113 = COORDINATED_UNIVERSAL_TIME_OFFSET ( 8, 0, .AHEAD. ) ;
#114 = CALENDAR_DATE ( 2019, 9, 7 ) ;
#115 = CIRCLE ( 'NONE', #321, 12.69999999999999600 ) ;
#116 = PERSON_AND_ORGANIZATION_ROLE ( 'classification_officer' ) ;
#117 = VERTEX_POINT ( 'NONE', #123 ) ;
#118 = DATE_AND_TIME ( #200, #264 ) ;
#119 = CIRCLE ( 'NONE', #185, 536.6516807900296700 ) ;
#120 = ORIENTED_EDGE ( 'NONE', *, *, #246, .T. ) ;
#121 = DIRECTION ( 'NONE',  ( -1.000000000000000000, -0.0000000000000000000, -0.0000000000000000000 ) ) ;
#122 = CARTESIAN_POINT ( 'NONE',  ( 87.45786520323396500, 48.61611302318478100, -12.69999999999999600 ) ) ;
#123 = CARTESIAN_POINT ( 'NONE',  ( 85.45852234609110100, 61.31611302318098200, 0.0000000000000000000 ) ) ;
#124 = APPROVAL_PERSON_ORGANIZATION ( #182, #159, #179 ) ;
#125 = VECTOR ( 'NONE', #215, 1000.000000000000000 ) ;
#126 = EDGE_LOOP ( 'NONE', ( #88, #137, #315, #330 ) ) ;
#127 = AXIS2_PLACEMENT_3D ( 'NONE', #46, #133, #316 ) ;
#128 = UNCERTAINTY_MEASURE_WITH_UNIT (LENGTH_MEASURE( 1.000000000000000100E-005 ), #271, 'distance_accuracy_value', 'NONE');
#129 = DIRECTION ( 'NONE',  ( 0.0000000000000000000, 0.0000000000000000000, 1.000000000000000000 ) ) ;
#130 = CC_DESIGN_PERSON_AND_ORGANIZATION_ASSIGNMENT ( #57, #32, ( #261 ) ) ;
#131 = CARTESIAN_POINT ( 'NONE',  ( 85.45852234609111500, 48.61611302318478100, 0.0000000000000000000 ) ) ;
#132 = DIRECTION ( 'NONE',  ( 0.0000000000000000000, 1.224646799147353200E-016, -1.000000000000000000 ) ) ;
#133 = DIRECTION ( 'NONE',  ( -0.0000000000000000000, 0.0000000000000000000, -1.000000000000000000 ) ) ;
#134 = LOCAL_TIME ( 13, 46, 40.00000000000000000, #113 ) ;
#135 = PERSON_AND_ORGANIZATION ( #273, #161 ) ;
#136 = CARTESIAN_POINT ( 'NONE',  ( 87.45786520323396500, 48.61611302318478100, 0.0000000000000000000 ) ) ;
#137 = ORIENTED_EDGE ( 'NONE', *, *, #21, .T. ) ;
#138 = ORIENTED_EDGE ( 'NONE', *, *, #90, .F. ) ;
#139 =( NAMED_UNIT ( * ) SI_UNIT ( $, .STERADIAN. ) SOLID_ANGLE_UNIT ( ) );
#140 = CC_DESIGN_DATE_AND_TIME_ASSIGNMENT ( #248, #7, ( #148 ) ) ;
#141 = CARTESIAN_POINT ( 'NONE',  ( -449.0435201582242300, 48.61611302318650000, 0.0000000000000000000 ) ) ;
#142 = PRODUCT_DEFINITION_SHAPE ( 'NONE', 'NONE',  #38 ) ;
#143 = APPROVAL_DATE_TIME ( #220, #26 ) ;
#144 = DATE_TIME_ROLE ( 'classification_date' ) ;
#145 = APPROVAL_PERSON_ORGANIZATION ( #303, #155, #203 ) ;
#146 = DATE_TIME_ROLE ( 'creation_date' ) ;
#147 = LOCAL_TIME ( 13, 46, 40.00000000000000000, #318 ) ;
#148 = SECURITY_CLASSIFICATION ( '', '', #62 ) ;
#149 = ORIENTED_EDGE ( 'NONE', *, *, #328, .T. ) ;
#150 = CLOSED_SHELL ( 'NONE', ( #218, #338, #262, #311, #191, #97 ) ) ;
#151 = APPROVAL_ROLE ( '' ) ;
#152 = COORDINATED_UNIVERSAL_TIME_OFFSET ( 8, 0, .AHEAD. ) ;
#153 = ADVANCED_BREP_SHAPE_REPRESENTATION ( '110159', ( #314, #79 ), #250 ) ;
#154 = ORIENTED_EDGE ( 'NONE', *, *, #75, .T. ) ;
#155 = APPROVAL ( #324, 'Î´Ö¸¶¨' ) ;
#156 = CC_DESIGN_PERSON_AND_ORGANIZATION_ASSIGNMENT ( #41, #331, ( #63 ) ) ;
#157 = APPROVAL_DATE_TIME ( #77, #198 ) ;
#158 = EDGE_CURVE ( 'NONE', #227, #234, #11, .T. ) ;
#159 = APPROVAL ( #83, 'Î´Ö¸¶¨' ) ;
#160 = CALENDAR_DATE ( 2019, 9, 7 ) ;
#161 = ORGANIZATION ( 'Î´Ö¸¶¨', 'Î´Ö¸¶¨', '' ) ;
#162 = DIRECTION ( 'NONE',  ( -1.000000000000000000, -0.0000000000000000000, -0.0000000000000000000 ) ) ;
#163 = EDGE_CURVE ( 'NONE', #117, #61, #256, .T. ) ;
#164 = SPHERICAL_SURFACE ( 'NONE', #42, 536.6516807900296700 ) ;
#165 = CIRCLE ( 'NONE', #24, 12.69999999999999600 ) ;
#166 = ORIENTED_EDGE ( 'NONE', *, *, #21, .F. ) ;
#167 = CARTESIAN_POINT ( 'NONE',  ( 85.45852234609111500, 48.61611302318478100, 12.69999999999999600 ) ) ;
#168 = DIRECTION ( 'NONE',  ( 1.000000000000000000, 0.0000000000000000000, 0.0000000000000000000 ) ) ;
#169 = PRODUCT ( '110159', '110159', '', ( #86 ) ) ;
#170 = DIRECTION ( 'NONE',  ( 0.0000000000000000000, 1.000000000000000000, 0.0000000000000000000 ) ) ;
#171 = APPROVAL_DATE_TIME ( #335, #155 ) ;
#172 = APPROVAL_DATE_TIME ( #241, #106 ) ;
#173 = ORIENTED_EDGE ( 'NONE', *, *, #284, .T. ) ;
#174 = CC_DESIGN_APPROVAL ( #26, ( #63 ) ) ;
#175 = CARTESIAN_POINT ( 'NONE',  ( 621.9599077077622300, 48.61611302318232200, 0.0000000000000000000 ) ) ;
#176 = APPLICATION_PROTOCOL_DEFINITION ( 'international standard', 'config_control_design', 1994, #300 ) ;
#177 = APPROVAL ( #30, 'Î´Ö¸¶¨' ) ;
#178 = FACE_OUTER_BOUND ( 'NONE', #320, .T. ) ;
#179 = APPROVAL_ROLE ( '' ) ;
#180 = EDGE_LOOP ( 'NONE', ( #202, #268, #206, #244, #66, #312 ) ) ;
#181 = EDGE_CURVE ( 'NONE', #272, #299, #221, .T. ) ;
#182 = PERSON_AND_ORGANIZATION ( #273, #161 ) ;
#183 = PERSON_AND_ORGANIZATION_ROLE ( 'design_supplier' ) ;
#184 = PERSON_AND_ORGANIZATION ( #273, #161 ) ;
#185 = AXIS2_PLACEMENT_3D ( 'NONE', #239, #307, #258 ) ;
#186 = DATE_AND_TIME ( #160, #289 ) ;
#187 = FACE_OUTER_BOUND ( 'NONE', #291, .T. ) ;
#188 = DIRECTION ( 'NONE',  ( -1.000000000000000000, 0.0000000000000000000, 0.0000000000000000000 ) ) ;
#189 = ORIENTED_EDGE ( 'NONE', *, *, #181, .F. ) ;
#190 = PERSON_AND_ORGANIZATION ( #273, #161 ) ;
#191 = ADVANCED_FACE ( 'NONE', ( #342 ), #39, .T. ) ;
#192 = PRODUCT_RELATED_PRODUCT_CATEGORY ( 'detail', '', ( #267 ) ) ;
#193 = CC_DESIGN_PERSON_AND_ORGANIZATION_ASSIGNMENT ( #23, #297, ( #277 ) ) ;
#194 = CARTESIAN_POINT ( 'NONE',  ( 87.45786520323396500, 48.61611302318478100, 0.0000000000000000000 ) ) ;
#195 =( NAMED_UNIT ( * ) PLANE_ANGLE_UNIT ( ) SI_UNIT ( $, .RADIAN. ) );
#196 = APPROVAL_DATE_TIME ( #186, #159 ) ;
#197 = ORIENTED_EDGE ( 'NONE', *, *, #90, .T. ) ;
#198 = APPROVAL ( #8, 'Î´Ö¸¶¨' ) ;
#199 = DIRECTION ( 'NONE',  ( -0.0000000000000000000, 0.0000000000000000000, -1.000000000000000000 ) ) ;
#200 = CALENDAR_DATE ( 2019, 9, 7 ) ;
#201 = PERSON_AND_ORGANIZATION_ROLE ( 'design_owner' ) ;
#202 = ORIENTED_EDGE ( 'NONE', *, *, #310, .T. ) ;
#203 = APPROVAL_ROLE ( '' ) ;
#204 = DIRECTION ( 'NONE',  ( 1.000000000000000000, 0.0000000000000000000, 0.0000000000000000000 ) ) ;
#205 = CALENDAR_DATE ( 2019, 9, 7 ) ;
#206 = ORIENTED_EDGE ( 'NONE', *, *, #163, .F. ) ;
#207 = APPLICATION_CONTEXT ( 'configuration controlled 3d designs of mechanical parts and assemblies' ) ;
#208 = EDGE_LOOP ( 'NONE', ( #166, #15, #189, #344 ) ) ;
#209 = AXIS2_PLACEMENT_3D ( 'NONE', #224, #340, #219 ) ;
#210 = PERSON_AND_ORGANIZATION ( #273, #161 ) ;
#211 = CIRCLE ( 'NONE', #6, 536.6516807900296700 ) ;
#212 = DIRECTION ( 'NONE',  ( -1.000000000000000000, -0.0000000000000000000, -0.0000000000000000000 ) ) ;
#213 = ORIENTED_EDGE ( 'NONE', *, *, #265, .T. ) ;
#214 = ORIENTED_EDGE ( 'NONE', *, *, #305, .T. ) ;
#215 = DIRECTION ( 'NONE',  ( -1.000000000000000000, -0.0000000000000000000, -0.0000000000000000000 ) ) ;
#216 = CC_DESIGN_APPROVAL ( #106, ( #148 ) ) ;
#217 = CARTESIAN_POINT ( 'NONE',  ( 87.45786520323395100, 61.31611302318634700, 1.555301434917120900E-015 ) ) ;
#218 = ADVANCED_FACE ( 'NONE', ( #60 ), #109, .T. ) ;
#219 = DIRECTION ( 'NONE',  ( 0.0000000000000000000, -1.000000000000000000, 0.0000000000000000000 ) ) ;
#220 = DATE_AND_TIME ( #304, #283 ) ;
#221 = CIRCLE ( 'NONE', #51, 12.69999999999999600 ) ;
#222 = DIRECTION ( 'NONE',  ( -1.000000000000000000, -0.0000000000000000000, -0.0000000000000000000 ) ) ;
#223 = DESIGN_CONTEXT ( 'detailed design', #302, 'design' ) ;
#224 = CARTESIAN_POINT ( 'NONE',  ( -449.0435201582242300, 48.61611302318650000, 0.0000000000000000000 ) ) ;
#225 = PERSON_AND_ORGANIZATION ( #273, #161 ) ;
#226 = COORDINATED_UNIVERSAL_TIME_OFFSET ( 8, 0, .AHEAD. ) ;
#227 = VERTEX_POINT ( 'NONE', #22 ) ;
#228 = CARTESIAN_POINT ( 'NONE',  ( 0.0000000000000000000, 0.0000000000000000000, 0.0000000000000000000 ) ) ;
#229 = AXIS2_PLACEMENT_3D ( 'NONE', #105, #295, #101 ) ;
#230 = SHAPE_DEFINITION_REPRESENTATION ( #332, #153 ) ;
#231 = CYLINDRICAL_SURFACE ( 'NONE', #280, 12.69999999999999600 ) ;
#232 = DIRECTION ( 'NONE',  ( -1.000000000000000000, -0.0000000000000000000, -0.0000000000000000000 ) ) ;
#233 = APPLICATION_PROTOCOL_DEFINITION ( 'international standard', 'config_control_design', 1994, #112 ) ;
#234 = VERTEX_POINT ( 'NONE', #100 ) ;
#235 = LOCAL_TIME ( 13, 46, 40.00000000000000000, #84 ) ;
#236 = DIRECTION ( 'NONE',  ( 0.0000000000000000000, 0.0000000000000000000, -1.000000000000000000 ) ) ;
#237 = CC_DESIGN_SECURITY_CLASSIFICATION ( #277, ( #14 ) ) ;
#238 = CARTESIAN_POINT ( 'NONE',  ( 87.45786520323396500, 48.61611302318478100, 0.0000000000000000000 ) ) ;
#239 = CARTESIAN_POINT ( 'NONE',  ( -449.0435201582242300, 48.61611302318650000, 0.0000000000000000000 ) ) ;
#240 = CALENDAR_DATE ( 2019, 9, 7 ) ;
#241 = DATE_AND_TIME ( #27, #69 ) ;
#242 = CARTESIAN_POINT ( 'NONE',  ( 87.45786520323396500, 48.61611302318478100, 12.69999999999999600 ) ) ;
#243 = DIRECTION ( 'NONE',  ( 0.0000000000000000000, 0.0000000000000000000, 1.000000000000000000 ) ) ;
#244 = ORIENTED_EDGE ( 'NONE', *, *, #265, .F. ) ;
#245 = DIRECTION ( 'NONE',  ( -1.000000000000000000, -0.0000000000000000000, -0.0000000000000000000 ) ) ;
#246 = EDGE_CURVE ( 'NONE', #272, #279, #252, .T. ) ;
#247 = COORDINATED_UNIVERSAL_TIME_OFFSET ( 8, 0, .AHEAD. ) ;
#248 = DATE_AND_TIME ( #37, #147 ) ;
#249 = CC_DESIGN_DATE_AND_TIME_ASSIGNMENT ( #74, #146, ( #38 ) ) ;
#250 =( GEOMETRIC_REPRESENTATION_CONTEXT ( 3 ) GLOBAL_UNCERTAINTY_ASSIGNED_CONTEXT ( ( #128 ) ) GLOBAL_UNIT_ASSIGNED_CONTEXT ( ( #271, #195, #139 ) ) REPRESENTATION_CONTEXT ( 'NONE', 'WORKASPACE' ) );
#251 = PERSON_AND_ORGANIZATION_ROLE ( 'creator' ) ;
#252 = LINE ( 'NONE', #288, #99 ) ;
#253 = DATE_TIME_ROLE ( 'creation_date' ) ;
#254 = CC_DESIGN_PERSON_AND_ORGANIZATION_ASSIGNMENT ( #225, #251, ( #14 ) ) ;
#255 = SPHERICAL_SURFACE ( 'NONE', #339, 536.6516807902423800 ) ;
#256 = CIRCLE ( 'NONE', #93, 12.69999999999999600 ) ;
#257 = CARTESIAN_POINT ( 'NONE',  ( 79.30540135083715800, 48.61611302318478100, 0.0000000000000000000 ) ) ;
#258 = DIRECTION ( 'NONE',  ( 0.0000000000000000000, -1.000000000000000000, -1.224646799147353500E-016 ) ) ;
#259 = CARTESIAN_POINT ( 'NONE',  ( 85.45852234609111500, 48.61611302318478100, -12.69999999999999600 ) ) ;
#260 = ORIENTED_EDGE ( 'NONE', *, *, #158, .F. ) ;
#261 = PRODUCT_DEFINITION ( 'Î´Öª', '', #14, #223 ) ;
#262 = ADVANCED_FACE ( 'NONE', ( #187 ), #91, .T. ) ;
#263 = CARTESIAN_POINT ( 'NONE',  ( 621.9599077077622300, 48.61611302318232200, 0.0000000000000000000 ) ) ;
#264 = LOCAL_TIME ( 13, 46, 40.00000000000000000, #65 ) ;
#265 = EDGE_CURVE ( 'NONE', #279, #117, #308, .T. ) ;
#266 = ORIENTED_EDGE ( 'NONE', *, *, #284, .F. ) ;
#267 = PRODUCT ( '110159', '110159', '', ( #326 ) ) ;
#268 = ORIENTED_EDGE ( 'NONE', *, *, #10, .T. ) ;
#269 = DIRECTION ( 'NONE',  ( -1.000000000000000000, -0.0000000000000000000, -0.0000000000000000000 ) ) ;
#270 = CC_DESIGN_SECURITY_CLASSIFICATION ( #148, ( #63 ) ) ;
#271 =( LENGTH_UNIT ( ) NAMED_UNIT ( * ) SI_UNIT ( .MILLI., .METRE. ) );
#272 = VERTEX_POINT ( 'NONE', #242 ) ;
#273 = PERSON ( 'Î´Ö¸¶¨', 'Î´Ö¸¶¨', 'Î´Ö¸¶¨', ('Î´Ö¸¶¨'), ('Î´Ö¸¶¨'), ('Î´Ö¸¶¨') ) ;
#274 = DATE_AND_TIME ( #343, #134 ) ;
#275 = PERSON_AND_ORGANIZATION_ROLE ( 'design_owner' ) ;
#276 = APPROVAL_ROLE ( '' ) ;
#277 = SECURITY_CLASSIFICATION ( '', '', #107 ) ;
#278 = PERSON_AND_ORGANIZATION ( #273, #161 ) ;
#279 = VERTEX_POINT ( 'NONE', #167 ) ;
#280 = AXIS2_PLACEMENT_3D ( 'NONE', #257, #40, #71 ) ;
#281 = CARTESIAN_POINT ( 'NONE',  ( 85.45852234609111500, 48.61611302318478100, 0.0000000000000000000 ) ) ;
#282 = DIRECTION ( 'NONE',  ( 0.0000000000000000000, 0.0000000000000000000, 1.000000000000000000 ) ) ;
#283 = LOCAL_TIME ( 13, 46, 40.00000000000000000, #226 ) ;
#284 = EDGE_CURVE ( 'NONE', #117, #234, #31, .T. ) ;
#285 = CARTESIAN_POINT ( 'NONE',  ( 79.30540135083715800, 48.61611302318478100, 0.0000000000000000000 ) ) ;
#286 = APPROVAL_PERSON_ORGANIZATION ( #184, #106, #34 ) ;
#287 = CIRCLE ( 'NONE', #111, 12.69999999999999600 ) ;
#288 = CARTESIAN_POINT ( 'NONE',  ( 79.30540135083715800, 48.61611302318478100, 12.69999999999999600 ) ) ;
#289 = LOCAL_TIME ( 13, 46, 40.00000000000000000, #247 ) ;
#290 = FACE_OUTER_BOUND ( 'NONE', #208, .T. ) ;
#291 = EDGE_LOOP ( 'NONE', ( #28, #214, #294, #266 ) ) ;
#292 = CARTESIAN_POINT ( 'NONE',  ( 87.45786520323395100, 35.91611302318493400, 0.0000000000000000000 ) ) ;
#293 = CC_DESIGN_APPROVAL ( #155, ( #277 ) ) ;
#294 = ORIENTED_EDGE ( 'NONE', *, *, #158, .T. ) ;
#295 = DIRECTION ( 'NONE',  ( -1.000000000000000000, -0.0000000000000000000, -0.0000000000000000000 ) ) ;
#296 = CC_DESIGN_PERSON_AND_ORGANIZATION_ASSIGNMENT ( #135, #201, ( #169 ) ) ;
#297 = PERSON_AND_ORGANIZATION_ROLE ( 'classification_officer' ) ;
#298 = COORDINATED_UNIVERSAL_TIME_OFFSET ( 8, 0, .AHEAD. ) ;
#299 = VERTEX_POINT ( 'NONE', #217 ) ;
#300 = APPLICATION_CONTEXT ( 'configuration controlled 3d designs of mechanical parts and assemblies' ) ;
#301 = APPLICATION_PROTOCOL_DEFINITION ( 'international standard', 'config_control_design', 1994, #207 ) ;
#302 = APPLICATION_CONTEXT ( 'configuration controlled 3d designs of mechanical parts and assemblies' ) ;
#303 = PERSON_AND_ORGANIZATION ( #273, #161 ) ;
#304 = CALENDAR_DATE ( 2019, 9, 7 ) ;
#305 = EDGE_CURVE ( 'NONE', #61, #227, #80, .T. ) ;
#306 = CALENDAR_DATE ( 2019, 9, 7 ) ;
#307 = DIRECTION ( 'NONE',  ( 0.0000000000000000000, -1.224646799147353200E-016, 1.000000000000000000 ) ) ;
#308 = CIRCLE ( 'NONE', #313, 12.69999999999999600 ) ;
#309 = CARTESIAN_POINT ( 'NONE',  ( -449.0435201582242300, 48.61611302318650000, 0.0000000000000000000 ) ) ;
#310 = EDGE_CURVE ( 'NONE', #299, #18, #115, .T. ) ;
#311 = ADVANCED_FACE ( 'NONE', ( #178 ), #255, .T. ) ;
#312 = ORIENTED_EDGE ( 'NONE', *, *, #181, .T. ) ;
#313 = AXIS2_PLACEMENT_3D ( 'NONE', #52, #232, #104 ) ;
#314 = MANIFOLD_SOLID_BREP ( 'Ðý×ª1', #150 ) ;
#315 = ORIENTED_EDGE ( 'NONE', *, *, #75, .F. ) ;
#316 = DIRECTION ( 'NONE',  ( 0.0000000000000000000, 1.000000000000000000, 0.0000000000000000000 ) ) ;
#317 = DIRECTION ( 'NONE',  ( 0.0000000000000000000, 0.0000000000000000000, 1.000000000000000000 ) ) ;
#318 = COORDINATED_UNIVERSAL_TIME_OFFSET ( 8, 0, .AHEAD. ) ;
#319 = CARTESIAN_POINT ( 'NONE',  ( 0.0000000000000000000, 0.0000000000000000000, 0.0000000000000000000 ) ) ;
#320 = EDGE_LOOP ( 'NONE', ( #260, #197, #213, #173 ) ) ;
#321 = AXIS2_PLACEMENT_3D ( 'NONE', #136, #1, #102 ) ;
#322 = DIRECTION ( 'NONE',  ( -0.0000000000000000000, 0.0000000000000000000, 1.000000000000000000 ) ) ;
#323 = LOCAL_TIME ( 13, 46, 40.00000000000000000, #341 ) ;
#324 = APPROVAL_STATUS ( 'not_yet_approved' ) ;
#325 = VERTEX_POINT ( 'NONE', #292 ) ;
#326 = MECHANICAL_CONTEXT ( 'NONE', #112, 'mechanical' ) ;
#327 = CC_DESIGN_PERSON_AND_ORGANIZATION_ASSIGNMENT ( #3, #183, ( #63 ) ) ;
#328 = EDGE_CURVE ( 'NONE', #325, #272, #287, .T. ) ;
#329 = FACE_OUTER_BOUND ( 'NONE', #334, .T. ) ;
#330 = ORIENTED_EDGE ( 'NONE', *, *, #310, .F. ) ;
#331 = PERSON_AND_ORGANIZATION_ROLE ( 'creator' ) ;
#332 = PRODUCT_DEFINITION_SHAPE ( 'NONE', 'NONE',  #261 ) ;
#333 = COORDINATED_UNIVERSAL_TIME_OFFSET ( 8, 0, .AHEAD. ) ;
#334 = EDGE_LOOP ( 'NONE', ( #45, #154, #149, #120, #138, #73 ) ) ;
#335 = DATE_AND_TIME ( #306, #17 ) ;
#336 = APPROVAL_PERSON_ORGANIZATION ( #59, #26, #276 ) ;
#337 = LINE ( 'NONE', #95, #125 ) ;
#338 = ADVANCED_FACE ( 'NONE', ( #290 ), #164, .T. ) ;
#339 = AXIS2_PLACEMENT_3D ( 'NONE', #25, #199, #170 ) ;
#340 = DIRECTION ( 'NONE',  ( 0.0000000000000000000, 0.0000000000000000000, 1.000000000000000000 ) ) ;
#341 = COORDINATED_UNIVERSAL_TIME_OFFSET ( 8, 0, .AHEAD. ) ;
#342 = FACE_OUTER_BOUND ( 'NONE', #126, .T. ) ;
#343 = CALENDAR_DATE ( 2019, 9, 7 ) ;
#344 = ORIENTED_EDGE ( 'NONE', *, *, #328, .F. ) ;
#345 = AXIS2_PLACEMENT_3D ( 'NONE', #281, #121, #282 ) ;
ENDSEC;
END-ISO-10303-21;
