ISO-10303-21;
HEADER;
FILE_DESCRIPTION (( 'STEP AP203' ),
    '1' );
FILE_NAME ('110158.STEP',
    '2019-07-09T05:40:47',
    ( '' ),
    ( '' ),
    'SwSTEP 2.0',
    'SolidWorks 2016',
    '' );
FILE_SCHEMA (( 'CONFIG_CONTROL_DESIGN' ));
ENDSEC;

DATA;
#1 = COORDINATED_UNIVERSAL_TIME_OFFSET ( 8, 0, .AHEAD. ) ;
#2 = ADVANCED_FACE ( 'NONE', ( #278 ), #179, .T. ) ;
#3 = AXIS2_PLACEMENT_3D ( 'NONE', #337, #197, #61 ) ;
#4 = EDGE_CURVE ( 'NONE', #6, #136, #153, .T. ) ;
#5 = PERSON_AND_ORGANIZATION ( #206, #160 ) ;
#6 = VERTEX_POINT ( 'NONE', #76 ) ;
#7 = APPROVAL_DATE_TIME ( #22, #287 ) ;
#8 = CC_DESIGN_APPROVAL ( #324, ( #177 ) ) ;
#9 = ORIENTED_EDGE ( 'NONE', *, *, #219, .T. ) ;
#10 = EDGE_CURVE ( 'NONE', #111, #64, #95, .T. ) ;
#11 = CC_DESIGN_APPROVAL ( #115, ( #296 ) ) ;
#12 = CALENDAR_DATE ( 2019, 9, 7 ) ;
#13 = CALENDAR_DATE ( 2019, 9, 7 ) ;
#14 = DIRECTION ( 'NONE',  ( -1.000000000000000000, -0.0000000000000000000, -0.0000000000000000000 ) ) ;
#15 = DIRECTION ( 'NONE',  ( -1.000000000000000000, -0.0000000000000000000, -0.0000000000000000000 ) ) ;
#16 = EDGE_CURVE ( 'NONE', #330, #162, #298, .T. ) ;
#17 = PERSON_AND_ORGANIZATION ( #206, #160 ) ;
#18 = ORIENTED_EDGE ( 'NONE', *, *, #325, .F. ) ;
#19 = PRODUCT_RELATED_PRODUCT_CATEGORY ( 'detail', '', ( #262 ) ) ;
#20 = DIRECTION ( 'NONE',  ( 0.0000000000000000000, 0.0000000000000000000, 1.000000000000000000 ) ) ;
#21 = CARTESIAN_POINT ( 'NONE',  ( -180.9395920509005600, 48.61611302318566200, 0.0000000000000000000 ) ) ;
#22 = DATE_AND_TIME ( #30, #99 ) ;
#23 = VERTEX_POINT ( 'NONE', #106 ) ;
#24 = APPROVAL_STATUS ( 'not_yet_approved' ) ;
#25 = DIRECTION ( 'NONE',  ( 0.0000000000000000000, 0.0000000000000000000, -1.000000000000000000 ) ) ;
#26 = SECURITY_CLASSIFICATION_LEVEL ( 'unclassified' ) ;
#27 = APPROVAL ( #175, 'Î´Ö¸¶¨' ) ;
#28 = ORIENTED_EDGE ( 'NONE', *, *, #325, .T. ) ;
#29 = AXIS2_PLACEMENT_3D ( 'NONE', #41, #148, #196 ) ;
#30 = CALENDAR_DATE ( 2019, 9, 7 ) ;
#31 = ORIENTED_EDGE ( 'NONE', *, *, #4, .T. ) ;
#32 = ORIENTED_EDGE ( 'NONE', *, *, #189, .F. ) ;
#33 = DIRECTION ( 'NONE',  ( 0.0000000000000000000, 0.0000000000000000000, 1.000000000000000000 ) ) ;
#34 = APPROVAL_DATE_TIME ( #131, #93 ) ;
#35 = AXIS2_PLACEMENT_3D ( 'NONE', #248, #14, #119 ) ;
#36 = LOCAL_TIME ( 13, 40, 47.00000000000000000, #152 ) ;
#37 = EDGE_LOOP ( 'NONE', ( #242, #344, #104, #88 ) ) ;
#38 = CARTESIAN_POINT ( 'NONE',  ( 79.30540135083715800, 48.61611302318478100, 12.69999999999999600 ) ) ;
#39 = CIRCLE ( 'NONE', #284, 12.69999999999999600 ) ;
#40 = APPLICATION_CONTEXT ( 'configuration controlled 3d designs of mechanical parts and assemblies' ) ;
#41 = CARTESIAN_POINT ( 'NONE',  ( 0.0000000000000000000, 0.0000000000000000000, 0.0000000000000000000 ) ) ;
#42 = CARTESIAN_POINT ( 'NONE',  ( 353.8559796002991200, 48.61611302318399900, 0.0000000000000000000 ) ) ;
#43 =( NAMED_UNIT ( * ) SI_UNIT ( $, .STERADIAN. ) SOLID_ANGLE_UNIT ( ) );
#44 = PERSON_AND_ORGANIZATION ( #206, #160 ) ;
#45 = CIRCLE ( 'NONE', #327, 12.69999999999999600 ) ;
#46 = ORIENTED_EDGE ( 'NONE', *, *, #300, .T. ) ;
#47 = EDGE_CURVE ( 'NONE', #23, #111, #186, .T. ) ;
#48 = COORDINATED_UNIVERSAL_TIME_OFFSET ( 8, 0, .AHEAD. ) ;
#49 = AXIS2_PLACEMENT_3D ( 'NONE', #98, #288, #20 ) ;
#50 = CALENDAR_DATE ( 2019, 9, 7 ) ;
#51 = CARTESIAN_POINT ( 'NONE',  ( 87.45786520323396500, 48.61611302318478100, 0.0000000000000000000 ) ) ;
#52 = VERTEX_POINT ( 'NONE', #125 ) ;
#53 = CARTESIAN_POINT ( 'NONE',  ( 85.45852234609111500, 48.61611302318478100, 0.0000000000000000000 ) ) ;
#54 = CC_DESIGN_DATE_AND_TIME_ASSIGNMENT ( #60, #105, ( #168 ) ) ;
#55 = PERSON_AND_ORGANIZATION ( #206, #160 ) ;
#56 = DATE_AND_TIME ( #133, #36 ) ;
#57 = CARTESIAN_POINT ( 'NONE',  ( -180.9395920509005600, 48.61611302318566200, 0.0000000000000000000 ) ) ;
#58 = SECURITY_CLASSIFICATION ( '', '', #258 ) ;
#59 = DIRECTION ( 'NONE',  ( -0.0000000000000000000, 0.0000000000000000000, 1.000000000000000000 ) ) ;
#60 = DATE_AND_TIME ( #165, #237 ) ;
#61 = DIRECTION ( 'NONE',  ( 0.0000000000000000000, 0.0000000000000000000, 1.000000000000000000 ) ) ;
#62 = AXIS2_PLACEMENT_3D ( 'NONE', #103, #25, #291 ) ;
#63 = COORDINATED_UNIVERSAL_TIME_OFFSET ( 8, 0, .AHEAD. ) ;
#64 = VERTEX_POINT ( 'NONE', #135 ) ;
#65 = CARTESIAN_POINT ( 'NONE',  ( 87.45786520323396500, 48.61611302318478100, -12.69999999999999600 ) ) ;
#66 = DIRECTION ( 'NONE',  ( 0.0000000000000000000, -1.224646799147353200E-016, 1.000000000000000000 ) ) ;
#67 = APPLICATION_PROTOCOL_DEFINITION ( 'international standard', 'config_control_design', 1994, #120 ) ;
#68 = PERSON_AND_ORGANIZATION_ROLE ( 'creator' ) ;
#69 =( LENGTH_UNIT ( ) NAMED_UNIT ( * ) SI_UNIT ( .MILLI., .METRE. ) );
#70 = MECHANICAL_CONTEXT ( 'NONE', #40, 'mechanical' ) ;
#71 = LOCAL_TIME ( 13, 40, 47.00000000000000000, #254 ) ;
#72 = SHAPE_DEFINITION_REPRESENTATION ( #271, #319 ) ;
#73 = ORIENTED_EDGE ( 'NONE', *, *, #312, .T. ) ;
#74 = APPROVAL_ROLE ( '' ) ;
#75 = PERSON_AND_ORGANIZATION_ROLE ( 'classification_officer' ) ;
#76 = CARTESIAN_POINT ( 'NONE',  ( 87.75816577466258700, 48.61611302318564800, 0.0000000000000000000 ) ) ;
#77 = APPROVAL_PERSON_ORGANIZATION ( #86, #93, #292 ) ;
#78 = ORIENTED_EDGE ( 'NONE', *, *, #307, .F. ) ;
#79 = PRODUCT_DEFINITION_FORMATION_WITH_SPECIFIED_SOURCE ( 'ÈÎºÎ', '', #262, .NOT_KNOWN. ) ;
#80 = CC_DESIGN_PERSON_AND_ORGANIZATION_ASSIGNMENT ( #333, #342, ( #130 ) ) ;
#81 = LOCAL_TIME ( 13, 40, 47.00000000000000000, #63 ) ;
#82 = SPHERICAL_SURFACE ( 'NONE', #236, 268.6977578255631400 ) ;
#83 = DIRECTION ( 'NONE',  ( -1.000000000000000000, -0.0000000000000000000, -0.0000000000000000000 ) ) ;
#84 = DIRECTION ( 'NONE',  ( 0.0000000000000000000, 0.0000000000000000000, 1.000000000000000000 ) ) ;
#85 = CIRCLE ( 'NONE', #334, 268.6977578256365300 ) ;
#86 = PERSON_AND_ORGANIZATION ( #206, #160 ) ;
#87 = SPHERICAL_SURFACE ( 'NONE', #187, 268.6977578256365300 ) ;
#88 = ORIENTED_EDGE ( 'NONE', *, *, #312, .F. ) ;
#89 = DIRECTION ( 'NONE',  ( 1.000000000000000000, 0.0000000000000000000, 0.0000000000000000000 ) ) ;
#90 = DIRECTION ( 'NONE',  ( 0.0000000000000000000, 1.000000000000000000, 1.224646799147353200E-016 ) ) ;
#91 = PERSON_AND_ORGANIZATION_ROLE ( 'design_owner' ) ;
#92 = DIRECTION ( 'NONE',  ( 0.0000000000000000000, 0.0000000000000000000, 1.000000000000000000 ) ) ;
#93 = APPROVAL ( #230, 'Î´Ö¸¶¨' ) ;
#94 = APPROVAL_DATE_TIME ( #222, #115 ) ;
#95 = CIRCLE ( 'NONE', #113, 12.69999999999999600 ) ;
#96 = APPROVAL_STATUS ( 'not_yet_approved' ) ;
#97 = CC_DESIGN_APPROVAL ( #268, ( #79 ) ) ;
#98 = CARTESIAN_POINT ( 'NONE',  ( 87.45786520323396500, 48.61611302318478100, 0.0000000000000000000 ) ) ;
#99 = LOCAL_TIME ( 13, 40, 47.00000000000000000, #208 ) ;
#100 = CIRCLE ( 'NONE', #223, 268.6977578256365300 ) ;
#101 = EDGE_LOOP ( 'NONE', ( #239, #260, #211, #212, #303, #316 ) ) ;
#102 = AXIS2_PLACEMENT_3D ( 'NONE', #51, #182, #272 ) ;
#103 = CARTESIAN_POINT ( 'NONE',  ( -180.9395920509005600, 48.61611302318566200, 0.0000000000000000000 ) ) ;
#104 = ORIENTED_EDGE ( 'NONE', *, *, #193, .F. ) ;
#105 = DATE_TIME_ROLE ( 'creation_date' ) ;
#106 = CARTESIAN_POINT ( 'NONE',  ( 85.45852234609111500, 48.61611302318478100, 12.69999999999999600 ) ) ;
#107 = ADVANCED_FACE ( 'NONE', ( #293 ), #82, .T. ) ;
#108 = CLOSED_SHELL ( 'NONE', ( #154, #321, #320, #235, #107, #2 ) ) ;
#109 = AXIS2_PLACEMENT_3D ( 'NONE', #305, #250, #313 ) ;
#110 = VECTOR ( 'NONE', #140, 1000.000000000000000 ) ;
#111 = VERTEX_POINT ( 'NONE', #331 ) ;
#112 = CC_DESIGN_DATE_AND_TIME_ASSIGNMENT ( #343, #126, ( #58 ) ) ;
#113 = AXIS2_PLACEMENT_3D ( 'NONE', #318, #83, #158 ) ;
#114 = DATE_AND_TIME ( #50, #141 ) ;
#115 = APPROVAL ( #129, 'Î´Ö¸¶¨' ) ;
#116 = DIRECTION ( 'NONE',  ( -1.000000000000000000, -0.0000000000000000000, -0.0000000000000000000 ) ) ;
#117 = FACE_OUTER_BOUND ( 'NONE', #234, .T. ) ;
#118 = EDGE_LOOP ( 'NONE', ( #295, #28, #285, #128 ) ) ;
#119 = DIRECTION ( 'NONE',  ( 0.0000000000000000000, 0.0000000000000000000, 1.000000000000000000 ) ) ;
#120 = APPLICATION_CONTEXT ( 'configuration controlled 3d designs of mechanical parts and assemblies' ) ;
#121 = PERSON_AND_ORGANIZATION ( #206, #160 ) ;
#122 = PERSON_AND_ORGANIZATION ( #206, #160 ) ;
#123 = PERSON_AND_ORGANIZATION_ROLE ( 'creator' ) ;
#124 =( GEOMETRIC_REPRESENTATION_CONTEXT ( 3 ) GLOBAL_UNCERTAINTY_ASSIGNED_CONTEXT ( ( #328 ) ) GLOBAL_UNIT_ASSIGNED_CONTEXT ( ( #69, #195, #43 ) ) REPRESENTATION_CONTEXT ( 'NONE', 'WORKASPACE' ) );
#125 = CARTESIAN_POINT ( 'NONE',  ( 85.45852234609110100, 35.91611302318450100, -1.555301434917076900E-015 ) ) ;
#126 = DATE_TIME_ROLE ( 'classification_date' ) ;
#127 = APPROVAL_PERSON_ORGANIZATION ( #181, #268, #147 ) ;
#128 = ORIENTED_EDGE ( 'NONE', *, *, #304, .F. ) ;
#129 = APPROVAL_STATUS ( 'not_yet_approved' ) ;
#130 = PRODUCT_DEFINITION_FORMATION_WITH_SPECIFIED_SOURCE ( 'ÈÎºÎ', '', #323, .NOT_KNOWN. ) ;
#131 = DATE_AND_TIME ( #265, #143 ) ;
#132 = EDGE_CURVE ( 'NONE', #52, #171, #85, .T. ) ;
#133 = CALENDAR_DATE ( 2019, 9, 7 ) ;
#134 = LINE ( 'NONE', #282, #110 ) ;
#135 = CARTESIAN_POINT ( 'NONE',  ( 85.45852234609111500, 48.61611302318478100, -12.69999999999999600 ) ) ;
#136 = VERTEX_POINT ( 'NONE', #170 ) ;
#137 = DATE_AND_TIME ( #159, #139 ) ;
#138 = ORIENTED_EDGE ( 'NONE', *, *, #300, .F. ) ;
#139 = LOCAL_TIME ( 13, 40, 47.00000000000000000, #227 ) ;
#140 = DIRECTION ( 'NONE',  ( -1.000000000000000000, -0.0000000000000000000, -0.0000000000000000000 ) ) ;
#141 = LOCAL_TIME ( 13, 40, 47.00000000000000000, #210 ) ;
#142 = ORIENTED_EDGE ( 'NONE', *, *, #132, .F. ) ;
#143 = LOCAL_TIME ( 13, 40, 47.00000000000000000, #48 ) ;
#144 = APPROVAL_STATUS ( 'not_yet_approved' ) ;
#145 = EDGE_LOOP ( 'NONE', ( #32, #31, #217, #166 ) ) ;
#146 = DIRECTION ( 'NONE',  ( 0.0000000000000000000, -1.000000000000000000, 0.0000000000000000000 ) ) ;
#147 = APPROVAL_ROLE ( '' ) ;
#148 = DIRECTION ( 'NONE',  ( 0.0000000000000000000, 0.0000000000000000000, 1.000000000000000000 ) ) ;
#149 = APPROVAL_ROLE ( '' ) ;
#150 = CC_DESIGN_APPROVAL ( #93, ( #168 ) ) ;
#151 = PERSON_AND_ORGANIZATION ( #206, #160 ) ;
#152 = COORDINATED_UNIVERSAL_TIME_OFFSET ( 8, 0, .AHEAD. ) ;
#153 = CIRCLE ( 'NONE', #62, 268.6977578255631400 ) ;
#154 = ADVANCED_FACE ( 'NONE', ( #229 ), #204, .T. ) ;
#155 = AXIS2_PLACEMENT_3D ( 'NONE', #53, #301, #84 ) ;
#156 = AXIS2_PLACEMENT_3D ( 'NONE', #231, #257, #232 ) ;
#157 = ORIENTED_EDGE ( 'NONE', *, *, #47, .T. ) ;
#158 = DIRECTION ( 'NONE',  ( 0.0000000000000000000, 0.0000000000000000000, 1.000000000000000000 ) ) ;
#159 = CALENDAR_DATE ( 2019, 9, 7 ) ;
#160 = ORGANIZATION ( 'Î´Ö¸¶¨', 'Î´Ö¸¶¨', '' ) ;
#161 = CIRCLE ( 'NONE', #184, 268.6977578255631400 ) ;
#162 = VERTEX_POINT ( 'NONE', #65 ) ;
#163 = CC_DESIGN_PERSON_AND_ORGANIZATION_ASSIGNMENT ( #55, #176, ( #296 ) ) ;
#164 = CC_DESIGN_DATE_AND_TIME_ASSIGNMENT ( #255, #308, ( #177 ) ) ;
#165 = CALENDAR_DATE ( 2019, 9, 7 ) ;
#166 = ORIENTED_EDGE ( 'NONE', *, *, #16, .F. ) ;
#167 = DIRECTION ( 'NONE',  ( 0.0000000000000000000, 1.224646799147353200E-016, -1.000000000000000000 ) ) ;
#168 = PRODUCT_DEFINITION ( 'Î´Öª', '', #130, #244 ) ;
#169 = DIRECTION ( 'NONE',  ( 1.000000000000000000, 0.0000000000000000000, 0.0000000000000000000 ) ) ;
#170 = CARTESIAN_POINT ( 'NONE',  ( 87.45786520323395100, 35.91611302318533200, 0.0000000000000000000 ) ) ;
#171 = VERTEX_POINT ( 'NONE', #340 ) ;
#172 = AXIS2_PLACEMENT_3D ( 'NONE', #224, #116, #92 ) ;
#173 = CARTESIAN_POINT ( 'NONE',  ( 353.8559796002991200, 48.61611302318399900, 0.0000000000000000000 ) ) ;
#174 = COORDINATED_UNIVERSAL_TIME_OFFSET ( 8, 0, .AHEAD. ) ;
#175 = APPROVAL_STATUS ( 'not_yet_approved' ) ;
#176 = PERSON_AND_ORGANIZATION_ROLE ( 'classification_officer' ) ;
#177 = PRODUCT_DEFINITION ( 'Î´Öª', '', #79, #188 ) ;
#178 = APPLICATION_CONTEXT ( 'configuration controlled 3d designs of mechanical parts and assemblies' ) ;
#179 = CYLINDRICAL_SURFACE ( 'NONE', #156, 12.69999999999999600 ) ;
#180 = CC_DESIGN_PERSON_AND_ORGANIZATION_ASSIGNMENT ( #322, #123, ( #79 ) ) ;
#181 = PERSON_AND_ORGANIZATION ( #206, #160 ) ;
#182 = DIRECTION ( 'NONE',  ( -1.000000000000000000, -0.0000000000000000000, -0.0000000000000000000 ) ) ;
#183 = CC_DESIGN_PERSON_AND_ORGANIZATION_ASSIGNMENT ( #314, #317, ( #168 ) ) ;
#184 = AXIS2_PLACEMENT_3D ( 'NONE', #218, #66, #280 ) ;
#185 = LOCAL_TIME ( 13, 40, 47.00000000000000000, #247 ) ;
#186 = CIRCLE ( 'NONE', #155, 12.69999999999999600 ) ;
#187 = AXIS2_PLACEMENT_3D ( 'NONE', #191, #335, #336 ) ;
#188 = DESIGN_CONTEXT ( 'detailed design', #120, 'design' ) ;
#189 = EDGE_CURVE ( 'NONE', #6, #330, #161, .T. ) ;
#190 = LINE ( 'NONE', #38, #277 ) ;
#191 = CARTESIAN_POINT ( 'NONE',  ( 353.8559796002991200, 48.61611302318399900, 0.0000000000000000000 ) ) ;
#192 = CARTESIAN_POINT ( 'NONE',  ( 85.45852234609111500, 48.61611302318478100, 0.0000000000000000000 ) ) ;
#193 = EDGE_CURVE ( 'NONE', #270, #330, #290, .T. ) ;
#194 = APPROVAL_DATE_TIME ( #56, #324 ) ;
#195 =( NAMED_UNIT ( * ) PLANE_ANGLE_UNIT ( ) SI_UNIT ( $, .RADIAN. ) );
#196 = DIRECTION ( 'NONE',  ( 1.000000000000000000, 0.0000000000000000000, 0.0000000000000000000 ) ) ;
#197 = DIRECTION ( 'NONE',  ( -1.000000000000000000, -0.0000000000000000000, -0.0000000000000000000 ) ) ;
#198 = DIRECTION ( 'NONE',  ( 0.0000000000000000000, 0.0000000000000000000, 1.000000000000000000 ) ) ;
#199 = APPROVAL_DATE_TIME ( #302, #27 ) ;
#200 = FACE_OUTER_BOUND ( 'NONE', #118, .T. ) ;
#201 = CC_DESIGN_PERSON_AND_ORGANIZATION_ASSIGNMENT ( #259, #202, ( #323 ) ) ;
#202 = PERSON_AND_ORGANIZATION_ROLE ( 'design_owner' ) ;
#203 = DATE_TIME_ROLE ( 'classification_date' ) ;
#204 = CYLINDRICAL_SURFACE ( 'NONE', #3, 12.69999999999999600 ) ;
#205 = ORIENTED_EDGE ( 'NONE', *, *, #275, .T. ) ;
#206 = PERSON ( 'Î´Ö¸¶¨', 'Î´Ö¸¶¨', 'Î´Ö¸¶¨', ('Î´Ö¸¶¨'), ('Î´Ö¸¶¨'), ('Î´Ö¸¶¨') ) ;
#207 = PERSON_AND_ORGANIZATION_ROLE ( 'creator' ) ;
#208 = COORDINATED_UNIVERSAL_TIME_OFFSET ( 8, 0, .AHEAD. ) ;
#209 = PERSON_AND_ORGANIZATION ( #206, #160 ) ;
#210 = COORDINATED_UNIVERSAL_TIME_OFFSET ( 8, 0, .AHEAD. ) ;
#211 = ORIENTED_EDGE ( 'NONE', *, *, #10, .F. ) ;
#212 = ORIENTED_EDGE ( 'NONE', *, *, #47, .F. ) ;
#213 = CC_DESIGN_PERSON_AND_ORGANIZATION_ASSIGNMENT ( #5, #233, ( #79 ) ) ;
#214 = APPROVAL_PERSON_ORGANIZATION ( #209, #115, #74 ) ;
#215 = DIRECTION ( 'NONE',  ( -1.000000000000000000, -0.0000000000000000000, -0.0000000000000000000 ) ) ;
#216 = PERSON_AND_ORGANIZATION ( #206, #160 ) ;
#217 = ORIENTED_EDGE ( 'NONE', *, *, #275, .F. ) ;
#218 = CARTESIAN_POINT ( 'NONE',  ( -180.9395920509005600, 48.61611302318566200, 0.0000000000000000000 ) ) ;
#219 = EDGE_CURVE ( 'NONE', #270, #23, #190, .T. ) ;
#220 = MECHANICAL_CONTEXT ( 'NONE', #252, 'mechanical' ) ;
#221 = DIRECTION ( 'NONE',  ( 0.0000000000000000000, 0.0000000000000000000, 1.000000000000000000 ) ) ;
#222 = DATE_AND_TIME ( #297, #71 ) ;
#223 = AXIS2_PLACEMENT_3D ( 'NONE', #173, #59, #89 ) ;
#224 = CARTESIAN_POINT ( 'NONE',  ( 87.45786520323396500, 48.61611302318478100, 0.0000000000000000000 ) ) ;
#225 = CARTESIAN_POINT ( 'NONE',  ( 87.45786520323395100, 61.31611302318511000, 1.555301434917071200E-015 ) ) ;
#226 = APPLICATION_PROTOCOL_DEFINITION ( 'international standard', 'config_control_design', 1994, #178 ) ;
#227 = COORDINATED_UNIVERSAL_TIME_OFFSET ( 8, 0, .AHEAD. ) ;
#228 = SPHERICAL_SURFACE ( 'NONE', #109, 268.6977578256365300 ) ;
#229 = FACE_OUTER_BOUND ( 'NONE', #101, .T. ) ;
#230 = APPROVAL_STATUS ( 'not_yet_approved' ) ;
#231 = CARTESIAN_POINT ( 'NONE',  ( 79.30540135083715800, 48.61611302318478100, 0.0000000000000000000 ) ) ;
#232 = DIRECTION ( 'NONE',  ( 0.0000000000000000000, 0.0000000000000000000, 1.000000000000000000 ) ) ;
#233 = PERSON_AND_ORGANIZATION_ROLE ( 'design_supplier' ) ;
#234 = EDGE_LOOP ( 'NONE', ( #142, #46, #157, #251 ) ) ;
#235 = ADVANCED_FACE ( 'NONE', ( #117 ), #87, .T. ) ;
#236 = AXIS2_PLACEMENT_3D ( 'NONE', #57, #33, #243 ) ;
#237 = LOCAL_TIME ( 13, 40, 47.00000000000000000, #174 ) ;
#238 = CIRCLE ( 'NONE', #172, 12.69999999999999600 ) ;
#239 = ORIENTED_EDGE ( 'NONE', *, *, #16, .T. ) ;
#240 = CC_DESIGN_SECURITY_CLASSIFICATION ( #296, ( #130 ) ) ;
#241 = PRODUCT_DEFINITION_SHAPE ( 'NONE', 'NONE',  #177 ) ;
#242 = ORIENTED_EDGE ( 'NONE', *, *, #4, .F. ) ;
#243 = DIRECTION ( 'NONE',  ( 0.0000000000000000000, -1.000000000000000000, 0.0000000000000000000 ) ) ;
#244 = DESIGN_CONTEXT ( 'detailed design', #178, 'design' ) ;
#245 = CC_DESIGN_DATE_AND_TIME_ASSIGNMENT ( #137, #203, ( #296 ) ) ;
#246 = APPROVAL_PERSON_ORGANIZATION ( #151, #27, #263 ) ;
#247 = COORDINATED_UNIVERSAL_TIME_OFFSET ( 8, 0, .AHEAD. ) ;
#248 = CARTESIAN_POINT ( 'NONE',  ( 87.45786520323396500, 48.61611302318478100, 0.0000000000000000000 ) ) ;
#249 = CC_DESIGN_PERSON_AND_ORGANIZATION_ASSIGNMENT ( #122, #68, ( #177 ) ) ;
#250 = DIRECTION ( 'NONE',  ( -0.0000000000000000000, 0.0000000000000000000, -1.000000000000000000 ) ) ;
#251 = ORIENTED_EDGE ( 'NONE', *, *, #304, .T. ) ;
#252 = APPLICATION_CONTEXT ( 'configuration controlled 3d designs of mechanical parts and assemblies' ) ;
#253 = DIRECTION ( 'NONE',  ( 0.0000000000000000000, 0.0000000000000000000, 1.000000000000000000 ) ) ;
#254 = COORDINATED_UNIVERSAL_TIME_OFFSET ( 8, 0, .AHEAD. ) ;
#255 = DATE_AND_TIME ( #266, #185 ) ;
#256 = CC_DESIGN_PERSON_AND_ORGANIZATION_ASSIGNMENT ( #17, #207, ( #130 ) ) ;
#257 = DIRECTION ( 'NONE',  ( -1.000000000000000000, -0.0000000000000000000, -0.0000000000000000000 ) ) ;
#258 = SECURITY_CLASSIFICATION_LEVEL ( 'unclassified' ) ;
#259 = PERSON_AND_ORGANIZATION ( #206, #160 ) ;
#260 = ORIENTED_EDGE ( 'NONE', *, *, #307, .T. ) ;
#261 = CC_DESIGN_APPROVAL ( #27, ( #58 ) ) ;
#262 = PRODUCT ( '110158', '110158', '', ( #220 ) ) ;
#263 = APPROVAL_ROLE ( '' ) ;
#264 = AXIS2_PLACEMENT_3D ( 'NONE', #21, #309, #146 ) ;
#265 = CALENDAR_DATE ( 2019, 9, 7 ) ;
#266 = CALENDAR_DATE ( 2019, 9, 7 ) ;
#267 = CC_DESIGN_SECURITY_CLASSIFICATION ( #58, ( #79 ) ) ;
#268 = APPROVAL ( #144, 'Î´Ö¸¶¨' ) ;
#269 = PERSON_AND_ORGANIZATION ( #206, #160 ) ;
#270 = VERTEX_POINT ( 'NONE', #276 ) ;
#271 = PRODUCT_DEFINITION_SHAPE ( 'NONE', 'NONE',  #168 ) ;
#272 = DIRECTION ( 'NONE',  ( 0.0000000000000000000, 0.0000000000000000000, 1.000000000000000000 ) ) ;
#273 = LOCAL_TIME ( 13, 40, 47.00000000000000000, #1 ) ;
#274 = APPROVAL_PERSON_ORGANIZATION ( #44, #324, #283 ) ;
#275 = EDGE_CURVE ( 'NONE', #162, #136, #238, .T. ) ;
#276 = CARTESIAN_POINT ( 'NONE',  ( 87.45786520323396500, 48.61611302318478100, 12.69999999999999600 ) ) ;
#277 = VECTOR ( 'NONE', #15, 1000.000000000000000 ) ;
#278 = FACE_OUTER_BOUND ( 'NONE', #306, .T. ) ;
#279 = CARTESIAN_POINT ( 'NONE',  ( 0.0000000000000000000, 0.0000000000000000000, 0.0000000000000000000 ) ) ;
#280 = DIRECTION ( 'NONE',  ( 0.0000000000000000000, -1.000000000000000000, -1.224646799147353200E-016 ) ) ;
#281 = PRODUCT_RELATED_PRODUCT_CATEGORY ( 'detail', '', ( #323 ) ) ;
#282 = CARTESIAN_POINT ( 'NONE',  ( 79.30540135083715800, 48.61611302318478100, -12.69999999999999600 ) ) ;
#283 = APPROVAL_ROLE ( '' ) ;
#284 = AXIS2_PLACEMENT_3D ( 'NONE', #311, #339, #198 ) ;
#285 = ORIENTED_EDGE ( 'NONE', *, *, #132, .T. ) ;
#286 = MANIFOLD_SOLID_BREP ( 'Ðý×ª1', #108 ) ;
#287 = APPROVAL ( #24, 'Î´Ö¸¶¨' ) ;
#288 = DIRECTION ( 'NONE',  ( -1.000000000000000000, -0.0000000000000000000, -0.0000000000000000000 ) ) ;
#289 = APPROVAL_PERSON_ORGANIZATION ( #121, #287, #149 ) ;
#290 = CIRCLE ( 'NONE', #35, 12.69999999999999600 ) ;
#291 = DIRECTION ( 'NONE',  ( -1.000000000000000000, 0.0000000000000000000, 0.0000000000000000000 ) ) ;
#292 = APPROVAL_ROLE ( '' ) ;
#293 = FACE_OUTER_BOUND ( 'NONE', #145, .T. ) ;
#294 = CC_DESIGN_PERSON_AND_ORGANIZATION_ASSIGNMENT ( #269, #75, ( #58 ) ) ;
#295 = ORIENTED_EDGE ( 'NONE', *, *, #10, .T. ) ;
#296 = SECURITY_CLASSIFICATION ( '', '', #26 ) ;
#297 = CALENDAR_DATE ( 2019, 9, 7 ) ;
#298 = CIRCLE ( 'NONE', #102, 12.69999999999999600 ) ;
#299 = CC_DESIGN_PERSON_AND_ORGANIZATION_ASSIGNMENT ( #216, #91, ( #262 ) ) ;
#300 = EDGE_CURVE ( 'NONE', #52, #23, #45, .T. ) ;
#301 = DIRECTION ( 'NONE',  ( -1.000000000000000000, -0.0000000000000000000, -0.0000000000000000000 ) ) ;
#302 = DATE_AND_TIME ( #12, #273 ) ;
#303 = ORIENTED_EDGE ( 'NONE', *, *, #219, .F. ) ;
#304 = EDGE_CURVE ( 'NONE', #111, #171, #100, .T. ) ;
#305 = CARTESIAN_POINT ( 'NONE',  ( 353.8559796002991200, 48.61611302318399900, 0.0000000000000000000 ) ) ;
#306 = EDGE_LOOP ( 'NONE', ( #78, #205, #73, #9, #138, #18 ) ) ;
#307 = EDGE_CURVE ( 'NONE', #162, #64, #134, .T. ) ;
#308 = DATE_TIME_ROLE ( 'creation_date' ) ;
#309 = DIRECTION ( 'NONE',  ( 0.0000000000000000000, 0.0000000000000000000, 1.000000000000000000 ) ) ;
#310 = APPLICATION_PROTOCOL_DEFINITION ( 'international standard', 'config_control_design', 1994, #252 ) ;
#311 = CARTESIAN_POINT ( 'NONE',  ( 85.45852234609111500, 48.61611302318478100, 0.0000000000000000000 ) ) ;
#312 = EDGE_CURVE ( 'NONE', #136, #270, #338, .T. ) ;
#313 = DIRECTION ( 'NONE',  ( 0.0000000000000000000, 1.000000000000000000, 0.0000000000000000000 ) ) ;
#314 = PERSON_AND_ORGANIZATION ( #206, #160 ) ;
#315 = SPHERICAL_SURFACE ( 'NONE', #264, 268.6977578255631400 ) ;
#316 = ORIENTED_EDGE ( 'NONE', *, *, #193, .T. ) ;
#317 = PERSON_AND_ORGANIZATION_ROLE ( 'creator' ) ;
#318 = CARTESIAN_POINT ( 'NONE',  ( 85.45852234609111500, 48.61611302318478100, 0.0000000000000000000 ) ) ;
#319 = ADVANCED_BREP_SHAPE_REPRESENTATION ( '110158', ( #286, #341 ), #124 ) ;
#320 = ADVANCED_FACE ( 'NONE', ( #200 ), #228, .T. ) ;
#321 = ADVANCED_FACE ( 'NONE', ( #329 ), #315, .T. ) ;
#322 = PERSON_AND_ORGANIZATION ( #206, #160 ) ;
#323 = PRODUCT ( '110158', '110158', '', ( #70 ) ) ;
#324 = APPROVAL ( #96, 'Î´Ö¸¶¨' ) ;
#325 = EDGE_CURVE ( 'NONE', #64, #52, #39, .T. ) ;
#326 = APPROVAL_DATE_TIME ( #114, #268 ) ;
#327 = AXIS2_PLACEMENT_3D ( 'NONE', #192, #215, #221 ) ;
#328 = UNCERTAINTY_MEASURE_WITH_UNIT (LENGTH_MEASURE( 1.000000000000000100E-005 ), #69, 'distance_accuracy_value', 'NONE');
#329 = FACE_OUTER_BOUND ( 'NONE', #37, .T. ) ;
#330 = VERTEX_POINT ( 'NONE', #225 ) ;
#331 = CARTESIAN_POINT ( 'NONE',  ( 85.45852234609110100, 61.31611302318427900, 0.0000000000000000000 ) ) ;
#332 = CC_DESIGN_APPROVAL ( #287, ( #130 ) ) ;
#333 = PERSON_AND_ORGANIZATION ( #206, #160 ) ;
#334 = AXIS2_PLACEMENT_3D ( 'NONE', #42, #167, #90 ) ;
#335 = DIRECTION ( 'NONE',  ( -0.0000000000000000000, 0.0000000000000000000, -1.000000000000000000 ) ) ;
#336 = DIRECTION ( 'NONE',  ( 0.0000000000000000000, 1.000000000000000000, 0.0000000000000000000 ) ) ;
#337 = CARTESIAN_POINT ( 'NONE',  ( 79.30540135083715800, 48.61611302318478100, 0.0000000000000000000 ) ) ;
#338 = CIRCLE ( 'NONE', #49, 12.69999999999999600 ) ;
#339 = DIRECTION ( 'NONE',  ( -1.000000000000000000, -0.0000000000000000000, -0.0000000000000000000 ) ) ;
#340 = CARTESIAN_POINT ( 'NONE',  ( 85.15822177466259300, 48.61611302318401300, 0.0000000000000000000 ) ) ;
#341 = AXIS2_PLACEMENT_3D ( 'NONE', #279, #253, #169 ) ;
#342 = PERSON_AND_ORGANIZATION_ROLE ( 'design_supplier' ) ;
#343 = DATE_AND_TIME ( #13, #81 ) ;
#344 = ORIENTED_EDGE ( 'NONE', *, *, #189, .T. ) ;
#345 = APPLICATION_PROTOCOL_DEFINITION ( 'international standard', 'config_control_design', 1994, #40 ) ;
ENDSEC;
END-ISO-10303-21;
