ISO-10303-21;
HEADER;
FILE_DESCRIPTION (( 'STEP AP203' ),
    '1' );
FILE_NAME ('100592.STEP',
    '2024-05-10T01:43:30',
    ( '' ),
    ( '' ),
    'SwSTEP 2.0',
    'SolidWorks 2020',
    '' );
FILE_SCHEMA (( 'CONFIG_CONTROL_DESIGN' ));
ENDSEC;

DATA;
#1 = DIRECTION ( 'NONE',  ( 0.000000000000000000, 0.000000000000000000, 1.000000000000000000 ) ) ;
#2 = CC_DESIGN_DATE_AND_TIME_ASSIGNMENT ( #103, #106, ( #77 ) ) ;
#3 = APPLICATION_CONTEXT ( 'configuration controlled 3d designs of mechanical parts and assemblies' ) ;
#4 = APPROVAL_ROLE ( '' ) ;
#5 = EDGE_CURVE ( 'NONE', #133, #57, #178, .T. ) ;
#6 = DATE_AND_TIME ( #75, #185 ) ;
#7 = APPROVAL_PERSON_ORGANIZATION ( #191, #180, #4 ) ;
#8 = ORIENTED_EDGE ( 'NONE', *, *, #134, .F. ) ;
#9 = CARTESIAN_POINT ( 'NONE',  ( 0.000000000000000000, -1.734723475976807094E-15, 0.000000000000000000 ) ) ;
#10 = EDGE_CURVE ( 'NONE', #57, #133, #63, .T. ) ;
#11 = PERSON ( 'Î´Ö¸¶¨', 'Î´Ö¸¶¨', 'Î´Ö¸¶¨', ('Î´Ö¸¶¨'), ('Î´Ö¸¶¨'), ('Î´Ö¸¶¨') ) ;
#12 = CLOSED_SHELL ( 'NONE', ( #92, #87, #69, #53, #150 ) ) ;
#13 = EDGE_LOOP ( 'NONE', ( #107, #126, #80 ) ) ;
#14 = CARTESIAN_POINT ( 'NONE',  ( 0.000000000000000000, -1.734723475976807094E-15, 12.50000000000000000 ) ) ;
#15 = FACE_OUTER_BOUND ( 'NONE', #143, .T. ) ;
#16 = CARTESIAN_POINT ( 'NONE',  ( 0.000000000000000000, -824.7859993724234755, 0.03221584471926712545 ) ) ;
#17 = AXIS2_PLACEMENT_3D ( 'NONE', #54, #51, #198 ) ;
#18 = CARTESIAN_POINT ( 'NONE',  ( 0.000000000000000000, 2.093999999999999861, 12.50000000000000000 ) ) ;
#19 = CIRCLE ( 'NONE', #131, 12.50000000000000000 ) ;
#20 = PERSON_AND_ORGANIZATION ( #11, #93 ) ;
#21 = CC_DESIGN_PERSON_AND_ORGANIZATION_ASSIGNMENT ( #104, #118, ( #179 ) ) ;
#22 = SECURITY_CLASSIFICATION_LEVEL ( 'unclassified' ) ;
#23 = CIRCLE ( 'NONE', #193, 826.8799999999998818 ) ;
#24 = CALENDAR_DATE ( 2024, 10, 5 ) ;
#25 = COORDINATED_UNIVERSAL_TIME_OFFSET ( 8, 0, .AHEAD. ) ;
#26 = ORIENTED_EDGE ( 'NONE', *, *, #5, .T. ) ;
#27 = DIRECTION ( 'NONE',  ( -0.000000000000000000, 1.000000000000000000, -0.000000000000000000 ) ) ;
#28 = CC_DESIGN_PERSON_AND_ORGANIZATION_ASSIGNMENT ( #146, #170, ( #105 ) ) ;
#29 = DIRECTION ( 'NONE',  ( 0.000000000000000000, -0.000000000000000000, -1.000000000000000000 ) ) ;
#30 = FACE_OUTER_BOUND ( 'NONE', #70, .T. ) ;
#31 = CYLINDRICAL_SURFACE ( 'NONE', #91, 12.50000000000000000 ) ;
#32 = DIRECTION ( 'NONE',  ( 0.000000000000000000, 0.000000000000000000, 1.000000000000000000 ) ) ;
#33 = CIRCLE ( 'NONE', #174, 826.8799999999998818 ) ;
#34 = DIRECTION ( 'NONE',  ( 0.000000000000000000, 0.000000000000000000, 1.000000000000000000 ) ) ;
#35 = LOCAL_TIME ( 9, 43, 30.00000000000000000, #192 ) ;
#36 = DIRECTION ( 'NONE',  ( -0.000000000000000000, 1.000000000000000000, -0.000000000000000000 ) ) ;
#37 = DIRECTION ( 'NONE',  ( 0.000000000000000000, 0.000000000000000000, 1.000000000000000000 ) ) ;
#38 = PRODUCT ( '100592', '100592', '', ( #55 ) ) ;
#39 = CC_DESIGN_SECURITY_CLASSIFICATION ( #77, ( #179 ) ) ;
#40 = APPROVAL_ROLE ( '' ) ;
#41 = ORIENTED_EDGE ( 'NONE', *, *, #10, .T. ) ;
#42 = ORIENTED_EDGE ( 'NONE', *, *, #167, .F. ) ;
#43 = APPROVAL ( #130, 'Î´Ö¸¶¨' ) ;
#44 = ORIENTED_EDGE ( 'NONE', *, *, #10, .F. ) ;
#45 = APPLICATION_CONTEXT ( 'configuration controlled 3d designs of mechanical parts and assemblies' ) ;
#46 = DIRECTION ( 'NONE',  ( -0.000000000000000000, 1.000000000000000000, -0.000000000000000000 ) ) ;
#47 = VECTOR ( 'NONE', #100, 1000.000000000000000 ) ;
#48 = CARTESIAN_POINT ( 'NONE',  ( 1.530808498934191521E-15, -1.734723475976807094E-15, -12.50000000000000000 ) ) ;
#49 = APPLICATION_PROTOCOL_DEFINITION ( 'international standard', 'config_control_design', 1994, #45 ) ;
#50 = DIRECTION ( 'NONE',  ( -0.000000000000000000, 1.000000000000000000, -0.000000000000000000 ) ) ;
#51 = DIRECTION ( 'NONE',  ( 0.000000000000000000, 0.000000000000000000, 1.000000000000000000 ) ) ;
#52 = DIRECTION ( 'NONE',  ( -0.000000000000000000, 1.000000000000000000, -0.000000000000000000 ) ) ;
#53 = ADVANCED_FACE ( 'NONE', ( #149 ), #186, .T. ) ;
#54 = CARTESIAN_POINT ( 'NONE',  ( 0.000000000000000000, 0.000000000000000000, 0.000000000000000000 ) ) ;
#55 = MECHANICAL_CONTEXT ( 'NONE', #3, 'mechanical' ) ;
#56 = APPROVAL_DATE_TIME ( #6, #61 ) ;
#57 = VERTEX_POINT ( 'NONE', #14 ) ;
#58 = APPROVAL_DATE_TIME ( #157, #43 ) ;
#59 = AXIS2_PLACEMENT_3D ( 'NONE', #199, #50, #181 ) ;
#60 = DATE_AND_TIME ( #24, #74 ) ;
#61 = APPROVAL ( #159, 'Î´Ö¸¶¨' ) ;
#62 = EDGE_LOOP ( 'NONE', ( #44, #161 ) ) ;
#63 = CIRCLE ( 'NONE', #142, 12.50000000000000000 ) ;
#64 = DIRECTION ( 'NONE',  ( 0.000000000000000000, 0.000000000000000000, 1.000000000000000000 ) ) ;
#65 = DIRECTION ( 'NONE',  ( 1.000000000000000000, 0.000000000000000000, 1.224646799147353207E-16 ) ) ;
#66 = PERSON_AND_ORGANIZATION ( #11, #93 ) ;
#67 = FACE_OUTER_BOUND ( 'NONE', #13, .T. ) ;
#68 = CARTESIAN_POINT ( 'NONE',  ( 0.000000000000000000, 2.093999999999999861, 0.000000000000000000 ) ) ;
#69 = ADVANCED_FACE ( 'NONE', ( #67 ), #156, .T. ) ;
#70 = EDGE_LOOP ( 'NONE', ( #158, #26, #196, #8 ) ) ;
#71 = ORIENTED_EDGE ( 'NONE', *, *, #188, .F. ) ;
#72 = COORDINATED_UNIVERSAL_TIME_OFFSET ( 8, 0, .AHEAD. ) ;
#73 = AXIS2_PLACEMENT_3D ( 'NONE', #136, #166, #1 ) ;
#74 = LOCAL_TIME ( 9, 43, 30.00000000000000000, #190 ) ;
#75 = CALENDAR_DATE ( 2024, 10, 5 ) ;
#76 = CALENDAR_DATE ( 2024, 10, 5 ) ;
#77 = SECURITY_CLASSIFICATION ( '', '', #22 ) ;
#78 = UNCERTAINTY_MEASURE_WITH_UNIT (LENGTH_MEASURE( 1.000000000000000082E-05 ), #137, 'distance_accuracy_value', 'NONE');
#79 = EDGE_LOOP ( 'NONE', ( #41, #163, #194, #71 ) ) ;
#80 = ORIENTED_EDGE ( 'NONE', *, *, #167, .T. ) ;
#81 = ADVANCED_BREP_SHAPE_REPRESENTATION ( '100592', ( #117, #17 ), #169 ) ;
#82 = CARTESIAN_POINT ( 'NONE',  ( 1.530808498934380453E-15, 1.999999999999944489, -12.50000000000154543 ) ) ;
#83 = FACE_OUTER_BOUND ( 'NONE', #79, .T. ) ;
#84 = APPROVAL_PERSON_ORGANIZATION ( #173, #43, #89 ) ;
#85 = DIRECTION ( 'NONE',  ( -0.000000000000000000, 1.000000000000000000, -0.000000000000000000 ) ) ;
#86 = CARTESIAN_POINT ( 'NONE',  ( 0.000000000000000000, 1.999999999999944489, 12.50000000000154543 ) ) ;
#87 = ADVANCED_FACE ( 'NONE', ( #15 ), #152, .T. ) ;
#88 = LINE ( 'NONE', #18, #47 ) ;
#89 = APPROVAL_ROLE ( '' ) ;
#90 = PERSON_AND_ORGANIZATION_ROLE ( 'classification_officer' ) ;
#91 = AXIS2_PLACEMENT_3D ( 'NONE', #98, #85, #139 ) ;
#92 = ADVANCED_FACE ( 'NONE', ( #83 ), #31, .T. ) ;
#93 = ORGANIZATION ( 'Î´Ö¸¶¨', 'Î´Ö¸¶¨', '' ) ;
#94 = CC_DESIGN_APPROVAL ( #43, ( #179 ) ) ;
#95 = DIRECTION ( 'NONE',  ( 0.000000000000000000, 0.000000000000000000, 1.000000000000000000 ) ) ;
#96 = CARTESIAN_POINT ( 'NONE',  ( 0.000000000000000000, 1.999999999999998224, 0.000000000000000000 ) ) ;
#97 = CARTESIAN_POINT ( 'NONE',  ( 0.000000000000000000, 2.093999999999999861, 0.000000000000000000 ) ) ;
#98 = CARTESIAN_POINT ( 'NONE',  ( 0.000000000000000000, 2.093999999999999861, 0.000000000000000000 ) ) ;
#99 =( NAMED_UNIT ( * ) SI_UNIT ( $, .STERADIAN. ) SOLID_ANGLE_UNIT ( ) );
#100 = DIRECTION ( 'NONE',  ( -0.000000000000000000, 1.000000000000000000, -0.000000000000000000 ) ) ;
#101 = PRODUCT_RELATED_PRODUCT_CATEGORY ( 'detail', '', ( #38 ) ) ;
#102 = CARTESIAN_POINT ( 'NONE',  ( 0.000000000000000000, 1.999999999999998224, 0.000000000000000000 ) ) ;
#103 = DATE_AND_TIME ( #76, #201 ) ;
#104 = PERSON_AND_ORGANIZATION ( #11, #93 ) ;
#105 = PRODUCT_DEFINITION ( 'Î´Öª', '', #179, #176 ) ;
#106 = DATE_TIME_ROLE ( 'classification_date' ) ;
#107 = ORIENTED_EDGE ( 'NONE', *, *, #116, .F. ) ;
#108 = VERTEX_POINT ( 'NONE', #82 ) ;
#109 = CC_DESIGN_PERSON_AND_ORGANIZATION_ASSIGNMENT ( #66, #184, ( #38 ) ) ;
#110 = AXIS2_PLACEMENT_3D ( 'NONE', #97, #52, #32 ) ;
#111 = CARTESIAN_POINT ( 'NONE',  ( 0.000000000000000000, -7.654042494670955634E-16, 0.000000000000000000 ) ) ;
#112 = PERSON_AND_ORGANIZATION ( #11, #93 ) ;
#113 = DIRECTION ( 'NONE',  ( -0.000000000000000000, 1.000000000000000000, -0.000000000000000000 ) ) ;
#114 = PERSON_AND_ORGANIZATION ( #11, #93 ) ;
#115 = SHAPE_DEFINITION_REPRESENTATION ( #182, #81 ) ;
#116 = EDGE_CURVE ( 'NONE', #108, #177, #33, .T. ) ;
#117 = MANIFOLD_SOLID_BREP ( 'Ðý×ª1', #12 ) ;
#118 = PERSON_AND_ORGANIZATION_ROLE ( 'creator' ) ;
#119 = CALENDAR_DATE ( 2024, 10, 5 ) ;
#120 = CC_DESIGN_PERSON_AND_ORGANIZATION_ASSIGNMENT ( #114, #175, ( #179 ) ) ;
#121 = CARTESIAN_POINT ( 'NONE',  ( 0.000000000000000000, -1.734723475976807094E-15, 0.000000000000000000 ) ) ;
#122 = DIRECTION ( 'NONE',  ( 1.224646799147352961E-16, 0.000000000000000000, -1.000000000000000000 ) ) ;
#123 = LOCAL_TIME ( 9, 43, 30.00000000000000000, #72 ) ;
#124 = AXIS2_PLACEMENT_3D ( 'NONE', #9, #27, #64 ) ;
#125 = DIRECTION ( 'NONE',  ( 0.000000000000000000, 0.000000000000000000, 1.000000000000000000 ) ) ;
#126 = ORIENTED_EDGE ( 'NONE', *, *, #134, .T. ) ;
#127 = ORIENTED_EDGE ( 'NONE', *, *, #116, .T. ) ;
#128 = CALENDAR_DATE ( 2024, 10, 5 ) ;
#129 = DATE_AND_TIME ( #128, #123 ) ;
#130 = APPROVAL_STATUS ( 'not_yet_approved' ) ;
#131 = AXIS2_PLACEMENT_3D ( 'NONE', #102, #113, #125 ) ;
#132 = COORDINATED_UNIVERSAL_TIME_OFFSET ( 8, 0, .AHEAD. ) ;
#133 = VERTEX_POINT ( 'NONE', #48 ) ;
#134 = EDGE_CURVE ( 'NONE', #108, #135, #195, .T. ) ;
#135 = VERTEX_POINT ( 'NONE', #86 ) ;
#136 = CARTESIAN_POINT ( 'NONE',  ( 0.000000000000000000, -824.7859993724234755, 0.000000000000000000 ) ) ;
#137 =( LENGTH_UNIT ( ) NAMED_UNIT ( * ) SI_UNIT ( .MILLI., .METRE. ) );
#138 = DIRECTION ( 'NONE',  ( -0.000000000000000000, 1.000000000000000000, -0.000000000000000000 ) ) ;
#139 = DIRECTION ( 'NONE',  ( 0.000000000000000000, 0.000000000000000000, 1.000000000000000000 ) ) ;
#140 = EDGE_CURVE ( 'NONE', #133, #108, #200, .T. ) ;
#141 = APPLICATION_PROTOCOL_DEFINITION ( 'international standard', 'config_control_design', 1994, #3 ) ;
#142 = AXIS2_PLACEMENT_3D ( 'NONE', #121, #46, #95 ) ;
#143 = EDGE_LOOP ( 'NONE', ( #171, #127, #42 ) ) ;
#144 = APPROVAL_STATUS ( 'not_yet_approved' ) ;
#145 = DATE_TIME_ROLE ( 'creation_date' ) ;
#146 = PERSON_AND_ORGANIZATION ( #11, #93 ) ;
#147 = VECTOR ( 'NONE', #36, 1000.000000000000000 ) ;
#148 = CC_DESIGN_APPROVAL ( #61, ( #105 ) ) ;
#149 = FACE_OUTER_BOUND ( 'NONE', #62, .T. ) ;
#150 = ADVANCED_FACE ( 'NONE', ( #30 ), #168, .T. ) ;
#151 = DIRECTION ( 'NONE',  ( -1.000000000000000000, 0.000000000000000000, 0.000000000000000000 ) ) ;
#152 = TOROIDAL_SURFACE ( 'NONE', #73, 0.03221584471926712545, 826.8799999999998818 ) ;
#153 = APPROVAL_PERSON_ORGANIZATION ( #112, #61, #40 ) ;
#154 = CARTESIAN_POINT ( 'NONE',  ( 1.530808498934191521E-15, 2.093999999999999861, -12.50000000000000000 ) ) ;
#155 = CC_DESIGN_DATE_AND_TIME_ASSIGNMENT ( #60, #145, ( #105 ) ) ;
#156 = TOROIDAL_SURFACE ( 'NONE', #59, 0.03221584471926712545, 826.8799999999998818 ) ;
#157 = DATE_AND_TIME ( #119, #35 ) ;
#158 = ORIENTED_EDGE ( 'NONE', *, *, #140, .F. ) ;
#159 = APPROVAL_STATUS ( 'not_yet_approved' ) ;
#160 = APPROVAL_DATE_TIME ( #129, #180 ) ;
#161 = ORIENTED_EDGE ( 'NONE', *, *, #5, .F. ) ;
#162 = CC_DESIGN_APPROVAL ( #180, ( #77 ) ) ;
#163 = ORIENTED_EDGE ( 'NONE', *, *, #140, .T. ) ;
#164 = DIRECTION ( 'NONE',  ( 0.000000000000000000, -1.000000000000000000, 0.000000000000000000 ) ) ;
#165 = AXIS2_PLACEMENT_3D ( 'NONE', #96, #138, #34 ) ;
#166 = DIRECTION ( 'NONE',  ( -0.000000000000000000, 1.000000000000000000, -0.000000000000000000 ) ) ;
#167 = EDGE_CURVE ( 'NONE', #135, #177, #23, .T. ) ;
#168 = CYLINDRICAL_SURFACE ( 'NONE', #110, 12.50000000000000000 ) ;
#169 =( GEOMETRIC_REPRESENTATION_CONTEXT ( 3 ) GLOBAL_UNCERTAINTY_ASSIGNED_CONTEXT ( ( #78 ) ) GLOBAL_UNIT_ASSIGNED_CONTEXT ( ( #137, #187, #99 ) ) REPRESENTATION_CONTEXT ( 'NONE', 'WORKASPACE' ) );
#170 = PERSON_AND_ORGANIZATION_ROLE ( 'creator' ) ;
#171 = ORIENTED_EDGE ( 'NONE', *, *, #172, .T. ) ;
#172 = EDGE_CURVE ( 'NONE', #135, #108, #19, .T. ) ;
#173 = PERSON_AND_ORGANIZATION ( #11, #93 ) ;
#174 = AXIS2_PLACEMENT_3D ( 'NONE', #197, #65, #122 ) ;
#175 = PERSON_AND_ORGANIZATION_ROLE ( 'design_supplier' ) ;
#176 = DESIGN_CONTEXT ( 'detailed design', #45, 'design' ) ;
#177 = VERTEX_POINT ( 'NONE', #68 ) ;
#178 = CIRCLE ( 'NONE', #124, 12.50000000000000000 ) ;
#179 = PRODUCT_DEFINITION_FORMATION_WITH_SPECIFIED_SOURCE ( 'ÈÎºÎ', '', #38, .NOT_KNOWN. ) ;
#180 = APPROVAL ( #144, 'Î´Ö¸¶¨' ) ;
#181 = DIRECTION ( 'NONE',  ( 0.000000000000000000, 0.000000000000000000, 1.000000000000000000 ) ) ;
#182 = PRODUCT_DEFINITION_SHAPE ( 'NONE', 'NONE',  #105 ) ;
#183 = AXIS2_PLACEMENT_3D ( 'NONE', #111, #164, #29 ) ;
#184 = PERSON_AND_ORGANIZATION_ROLE ( 'design_owner' ) ;
#185 = LOCAL_TIME ( 9, 43, 30.00000000000000000, #25 ) ;
#186 = PLANE ( 'NONE',  #183 ) ;
#187 =( NAMED_UNIT ( * ) PLANE_ANGLE_UNIT ( ) SI_UNIT ( $, .RADIAN. ) );
#188 = EDGE_CURVE ( 'NONE', #57, #135, #88, .T. ) ;
#189 = CC_DESIGN_PERSON_AND_ORGANIZATION_ASSIGNMENT ( #20, #90, ( #77 ) ) ;
#190 = COORDINATED_UNIVERSAL_TIME_OFFSET ( 8, 0, .AHEAD. ) ;
#191 = PERSON_AND_ORGANIZATION ( #11, #93 ) ;
#192 = COORDINATED_UNIVERSAL_TIME_OFFSET ( 8, 0, .AHEAD. ) ;
#193 = AXIS2_PLACEMENT_3D ( 'NONE', #16, #151, #37 ) ;
#194 = ORIENTED_EDGE ( 'NONE', *, *, #172, .F. ) ;
#195 = CIRCLE ( 'NONE', #165, 12.50000000000000000 ) ;
#196 = ORIENTED_EDGE ( 'NONE', *, *, #188, .T. ) ;
#197 = CARTESIAN_POINT ( 'NONE',  ( 3.945303111727864712E-18, -824.7859993724234755, -0.03221584471926712545 ) ) ;
#198 = DIRECTION ( 'NONE',  ( 1.000000000000000000, 0.000000000000000000, 0.000000000000000000 ) ) ;
#199 = CARTESIAN_POINT ( 'NONE',  ( 0.000000000000000000, -824.7859993724234755, 0.000000000000000000 ) ) ;
#200 = LINE ( 'NONE', #154, #147 ) ;
#201 = LOCAL_TIME ( 9, 43, 30.00000000000000000, #132 ) ;
ENDSEC;
END-ISO-10303-21;
