ISO-10303-21;
HEADER;
FILE_DESCRIPTION (( 'STEP AP203' ),
    '1' );
FILE_NAME ('100579.STEP',
    '2024-05-10T01:12:02',
    ( '' ),
    ( '' ),
    'SwSTEP 2.0',
    'SolidWorks 2020',
    '' );
FILE_SCHEMA (( 'CONFIG_CONTROL_DESIGN' ));
ENDSEC;

DATA;
#1 = EDGE_LOOP ( 'NONE', ( #36, #163, #92 ) ) ;
#2 = MECHANICAL_CONTEXT ( 'NONE', #117, 'mechanical' ) ;
#3 = ORIENTED_EDGE ( 'NONE', *, *, #188, .F. ) ;
#4 = APPROVAL_DATE_TIME ( #32, #124 ) ;
#5 = CIRCLE ( 'NONE', #47, 15.00000000000000000 ) ;
#6 = AXIS2_PLACEMENT_3D ( 'NONE', #29, #122, #54 ) ;
#7 = DATE_TIME_ROLE ( 'classification_date' ) ;
#8 = DIRECTION ( 'NONE',  ( -0.000000000000000000, 1.000000000000000000, -0.000000000000000000 ) ) ;
#9 = DIRECTION ( 'NONE',  ( 0.000000000000000000, 0.000000000000000000, 1.000000000000000000 ) ) ;
#10 = DIRECTION ( 'NONE',  ( -0.000000000000000000, 1.000000000000000000, -0.000000000000000000 ) ) ;
#11 = ORIENTED_EDGE ( 'NONE', *, *, #120, .F. ) ;
#12 = CARTESIAN_POINT ( 'NONE',  ( 0.000000000000000000, -9.184850993605147944E-16, 0.000000000000000000 ) ) ;
#13 = AXIS2_PLACEMENT_3D ( 'NONE', #52, #41, #79 ) ;
#14 = CC_DESIGN_APPROVAL ( #136, ( #19 ) ) ;
#15 = PERSON_AND_ORGANIZATION ( #145, #167 ) ;
#16 = ADVANCED_FACE ( 'NONE', ( #68 ), #125, .T. ) ;
#17 = APPROVAL_ROLE ( '' ) ;
#18 =( NAMED_UNIT ( * ) PLANE_ANGLE_UNIT ( ) SI_UNIT ( $, .RADIAN. ) );
#19 = SECURITY_CLASSIFICATION ( '', '', #106 ) ;
#20 = EDGE_CURVE ( 'NONE', #53, #154, #34, .T. ) ;
#21 = APPROVAL_STATUS ( 'not_yet_approved' ) ;
#22 = VECTOR ( 'NONE', #10, 1000.000000000000000 ) ;
#23 = DATE_AND_TIME ( #61, #180 ) ;
#24 = LOCAL_TIME ( 9, 12, 2.000000000000000000, #134 ) ;
#25 = PRODUCT_RELATED_PRODUCT_CATEGORY ( 'detail', '', ( #73 ) ) ;
#26 = UNCERTAINTY_MEASURE_WITH_UNIT (LENGTH_MEASURE( 1.000000000000000082E-05 ), #171, 'distance_accuracy_value', 'NONE');
#27 = ORIENTED_EDGE ( 'NONE', *, *, #107, .T. ) ;
#28 = TOROIDAL_SURFACE ( 'NONE', #102, 0.02931019276951850328, 129.2400000000000375 ) ;
#29 = CARTESIAN_POINT ( 'NONE',  ( 0.000000000000000000, 0.000000000000000000, 0.000000000000000000 ) ) ;
#30 = ORIENTED_EDGE ( 'NONE', *, *, #120, .T. ) ;
#31 = PERSON_AND_ORGANIZATION ( #145, #167 ) ;
#32 = DATE_AND_TIME ( #82, #87 ) ;
#33 = CARTESIAN_POINT ( 'NONE',  ( 1.836970198721029589E-15, -1.734723475976807094E-15, -15.00000000000000000 ) ) ;
#34 = CIRCLE ( 'NONE', #150, 129.2400000000000375 ) ;
#35 = DIRECTION ( 'NONE',  ( -0.000000000000000000, 1.000000000000000000, -0.000000000000000000 ) ) ;
#36 = ORIENTED_EDGE ( 'NONE', *, *, #139, .T. ) ;
#37 = DIRECTION ( 'NONE',  ( 0.000000000000000000, 0.000000000000000000, 1.000000000000000000 ) ) ;
#38 = DIRECTION ( 'NONE',  ( 0.000000000000000000, -1.000000000000000000, 0.000000000000000000 ) ) ;
#39 = ORIENTED_EDGE ( 'NONE', *, *, #188, .T. ) ;
#40 = DIRECTION ( 'NONE',  ( 1.000000000000000000, 0.000000000000000000, 1.224646799147353207E-16 ) ) ;
#41 = DIRECTION ( 'NONE',  ( -0.000000000000000000, 1.000000000000000000, -0.000000000000000000 ) ) ;
#42 = ORIENTED_EDGE ( 'NONE', *, *, #139, .F. ) ;
#43 = APPLICATION_PROTOCOL_DEFINITION ( 'international standard', 'config_control_design', 1994, #164 ) ;
#44 = APPROVAL_ROLE ( '' ) ;
#45 = PERSON_AND_ORGANIZATION ( #145, #167 ) ;
#46 = ADVANCED_FACE ( 'NONE', ( #146 ), #178, .T. ) ;
#47 = AXIS2_PLACEMENT_3D ( 'NONE', #192, #105, #85 ) ;
#48 = PLANE ( 'NONE',  #96 ) ;
#49 = CARTESIAN_POINT ( 'NONE',  ( 0.000000000000000000, 3.370000000000000107, 15.00000000000000000 ) ) ;
#50 = LOCAL_TIME ( 9, 12, 2.000000000000000000, #175 ) ;
#51 = CARTESIAN_POINT ( 'NONE',  ( 0.000000000000000000, -1.734723475976807094E-15, 0.000000000000000000 ) ) ;
#52 = CARTESIAN_POINT ( 'NONE',  ( 0.000000000000000000, -125.8699966763873448, 0.000000000000000000 ) ) ;
#53 = VERTEX_POINT ( 'NONE', #67 ) ;
#54 = DIRECTION ( 'NONE',  ( 1.000000000000000000, 0.000000000000000000, 0.000000000000000000 ) ) ;
#55 = APPROVAL_DATE_TIME ( #189, #158 ) ;
#56 = COORDINATED_UNIVERSAL_TIME_OFFSET ( 8, 0, .AHEAD. ) ;
#57 = AXIS2_PLACEMENT_3D ( 'NONE', #198, #130, #64 ) ;
#58 = CARTESIAN_POINT ( 'NONE',  ( 0.000000000000000000, -1.734723475976807094E-15, 15.00000000000000000 ) ) ;
#59 = DATE_AND_TIME ( #86, #50 ) ;
#60 = DIRECTION ( 'NONE',  ( 0.000000000000000000, 0.000000000000000000, 1.000000000000000000 ) ) ;
#61 = CALENDAR_DATE ( 2024, 10, 5 ) ;
#62 = FACE_OUTER_BOUND ( 'NONE', #1, .T. ) ;
#63 = PERSON_AND_ORGANIZATION ( #145, #167 ) ;
#64 = DIRECTION ( 'NONE',  ( 0.000000000000000000, 0.000000000000000000, 1.000000000000000000 ) ) ;
#65 = CARTESIAN_POINT ( 'NONE',  ( 0.000000000000000000, 2.499999999999998224, 0.000000000000000000 ) ) ;
#66 = EDGE_CURVE ( 'NONE', #116, #154, #176, .T. ) ;
#67 = CARTESIAN_POINT ( 'NONE',  ( 1.836970198721026039E-15, 2.500000000000000444, -14.99999999999996980 ) ) ;
#68 = FACE_OUTER_BOUND ( 'NONE', #201, .T. ) ;
#69 = CC_DESIGN_DATE_AND_TIME_ASSIGNMENT ( #72, #133, ( #104 ) ) ;
#70 = APPLICATION_PROTOCOL_DEFINITION ( 'international standard', 'config_control_design', 1994, #117 ) ;
#71 = EDGE_LOOP ( 'NONE', ( #141, #115 ) ) ;
#72 = DATE_AND_TIME ( #169, #24 ) ;
#73 = PRODUCT ( '100579', '100579', '', ( #2 ) ) ;
#74 =( GEOMETRIC_REPRESENTATION_CONTEXT ( 3 ) GLOBAL_UNCERTAINTY_ASSIGNED_CONTEXT ( ( #26 ) ) GLOBAL_UNIT_ASSIGNED_CONTEXT ( ( #171, #18, #81 ) ) REPRESENTATION_CONTEXT ( 'NONE', 'WORKASPACE' ) );
#75 = SHAPE_DEFINITION_REPRESENTATION ( #172, #90 ) ;
#76 = AXIS2_PLACEMENT_3D ( 'NONE', #138, #191, #60 ) ;
#77 = DIRECTION ( 'NONE',  ( -0.000000000000000000, 1.000000000000000000, -0.000000000000000000 ) ) ;
#78 = EDGE_CURVE ( 'NONE', #162, #184, #111, .T. ) ;
#79 = DIRECTION ( 'NONE',  ( 0.000000000000000000, 0.000000000000000000, 1.000000000000000000 ) ) ;
#80 = AXIS2_PLACEMENT_3D ( 'NONE', #65, #8, #181 ) ;
#81 =( NAMED_UNIT ( * ) SI_UNIT ( $, .STERADIAN. ) SOLID_ANGLE_UNIT ( ) );
#82 = CALENDAR_DATE ( 2024, 10, 5 ) ;
#83 = APPROVAL_PERSON_ORGANIZATION ( #156, #136, #159 ) ;
#84 = PERSON_AND_ORGANIZATION_ROLE ( 'creator' ) ;
#85 = DIRECTION ( 'NONE',  ( 0.000000000000000000, 0.000000000000000000, 1.000000000000000000 ) ) ;
#86 = CALENDAR_DATE ( 2024, 10, 5 ) ;
#87 = LOCAL_TIME ( 9, 12, 2.000000000000000000, #119 ) ;
#88 = CARTESIAN_POINT ( 'NONE',  ( 0.000000000000000000, -125.8699966763873448, 0.02931019276951850328 ) ) ;
#89 = CARTESIAN_POINT ( 'NONE',  ( 0.000000000000000000, -125.8699966763873448, 0.000000000000000000 ) ) ;
#90 = ADVANCED_BREP_SHAPE_REPRESENTATION ( '100579', ( #109, #6 ), #74 ) ;
#91 = DIRECTION ( 'NONE',  ( -1.000000000000000000, 0.000000000000000000, 0.000000000000000000 ) ) ;
#92 = ORIENTED_EDGE ( 'NONE', *, *, #66, .F. ) ;
#93 = DIRECTION ( 'NONE',  ( 1.224646799147353454E-16, 0.000000000000000000, -1.000000000000000000 ) ) ;
#94 = CLOSED_SHELL ( 'NONE', ( #46, #99, #16, #149, #153 ) ) ;
#95 = ORIENTED_EDGE ( 'NONE', *, *, #107, .F. ) ;
#96 = AXIS2_PLACEMENT_3D ( 'NONE', #12, #38, #110 ) ;
#97 = PERSON_AND_ORGANIZATION ( #145, #167 ) ;
#98 = PRODUCT_DEFINITION_FORMATION_WITH_SPECIFIED_SOURCE ( 'ÈÎºÎ', '', #73, .NOT_KNOWN. ) ;
#99 = ADVANCED_FACE ( 'NONE', ( #62 ), #28, .T. ) ;
#100 = CC_DESIGN_APPROVAL ( #158, ( #98 ) ) ;
#101 = PERSON_AND_ORGANIZATION_ROLE ( 'creator' ) ;
#102 = AXIS2_PLACEMENT_3D ( 'NONE', #89, #77, #113 ) ;
#103 = CC_DESIGN_PERSON_AND_ORGANIZATION_ASSIGNMENT ( #63, #127, ( #19 ) ) ;
#104 = PRODUCT_DEFINITION ( 'Î´Öª', '', #98, #190 ) ;
#105 = DIRECTION ( 'NONE',  ( -0.000000000000000000, 1.000000000000000000, -0.000000000000000000 ) ) ;
#106 = SECURITY_CLASSIFICATION_LEVEL ( 'unclassified' ) ;
#107 = EDGE_CURVE ( 'NONE', #184, #116, #114, .T. ) ;
#108 = PERSON_AND_ORGANIZATION_ROLE ( 'design_supplier' ) ;
#109 = MANIFOLD_SOLID_BREP ( 'Ðý×ª1', #94 ) ;
#110 = DIRECTION ( 'NONE',  ( 0.000000000000000000, -0.000000000000000000, -1.000000000000000000 ) ) ;
#111 = CIRCLE ( 'NONE', #170, 15.00000000000000000 ) ;
#112 = CARTESIAN_POINT ( 'NONE',  ( 3.589463375758273298E-18, -125.8699966763873448, -0.02931019276951850328 ) ) ;
#113 = DIRECTION ( 'NONE',  ( 0.000000000000000000, 0.000000000000000000, 1.000000000000000000 ) ) ;
#114 = LINE ( 'NONE', #49, #22 ) ;
#115 = ORIENTED_EDGE ( 'NONE', *, *, #78, .F. ) ;
#116 = VERTEX_POINT ( 'NONE', #126 ) ;
#117 = APPLICATION_CONTEXT ( 'configuration controlled 3d designs of mechanical parts and assemblies' ) ;
#118 = CIRCLE ( 'NONE', #76, 15.00000000000000000 ) ;
#119 = COORDINATED_UNIVERSAL_TIME_OFFSET ( 8, 0, .AHEAD. ) ;
#120 = EDGE_CURVE ( 'NONE', #162, #53, #183, .T. ) ;
#121 = PERSON_AND_ORGANIZATION ( #145, #167 ) ;
#122 = DIRECTION ( 'NONE',  ( 0.000000000000000000, 0.000000000000000000, 1.000000000000000000 ) ) ;
#123 = CC_DESIGN_PERSON_AND_ORGANIZATION_ASSIGNMENT ( #45, #108, ( #98 ) ) ;
#124 = APPROVAL ( #135, 'Î´Ö¸¶¨' ) ;
#125 = TOROIDAL_SURFACE ( 'NONE', #13, 0.02931019276951850328, 129.2400000000000375 ) ;
#126 = CARTESIAN_POINT ( 'NONE',  ( 0.000000000000000000, 2.500000000000000444, 14.99999999999996980 ) ) ;
#127 = PERSON_AND_ORGANIZATION_ROLE ( 'classification_officer' ) ;
#128 = CC_DESIGN_PERSON_AND_ORGANIZATION_ASSIGNMENT ( #15, #84, ( #104 ) ) ;
#129 = CARTESIAN_POINT ( 'NONE',  ( 0.000000000000000000, 3.370000000000000107, 0.000000000000000000 ) ) ;
#130 = DIRECTION ( 'NONE',  ( -0.000000000000000000, 1.000000000000000000, -0.000000000000000000 ) ) ;
#131 = VECTOR ( 'NONE', #35, 1000.000000000000000 ) ;
#132 = ORIENTED_EDGE ( 'NONE', *, *, #78, .T. ) ;
#133 = DATE_TIME_ROLE ( 'creation_date' ) ;
#134 = COORDINATED_UNIVERSAL_TIME_OFFSET ( 8, 0, .AHEAD. ) ;
#135 = APPROVAL_STATUS ( 'not_yet_approved' ) ;
#136 = APPROVAL ( #21, 'Î´Ö¸¶¨' ) ;
#137 = AXIS2_PLACEMENT_3D ( 'NONE', #148, #144, #9 ) ;
#138 = CARTESIAN_POINT ( 'NONE',  ( 0.000000000000000000, 2.499999999999998224, 0.000000000000000000 ) ) ;
#139 = EDGE_CURVE ( 'NONE', #116, #53, #174, .T. ) ;
#140 = LOCAL_TIME ( 9, 12, 2.000000000000000000, #56 ) ;
#141 = ORIENTED_EDGE ( 'NONE', *, *, #197, .F. ) ;
#142 = CARTESIAN_POINT ( 'NONE',  ( 1.836970198721029589E-15, 3.370000000000000107, -15.00000000000000000 ) ) ;
#143 = CC_DESIGN_DATE_AND_TIME_ASSIGNMENT ( #23, #7, ( #19 ) ) ;
#144 = DIRECTION ( 'NONE',  ( -0.000000000000000000, 1.000000000000000000, -0.000000000000000000 ) ) ;
#145 = PERSON ( 'Î´Ö¸¶¨', 'Î´Ö¸¶¨', 'Î´Ö¸¶¨', ('Î´Ö¸¶¨'), ('Î´Ö¸¶¨'), ('Î´Ö¸¶¨') ) ;
#146 = FACE_OUTER_BOUND ( 'NONE', #179, .T. ) ;
#147 = EDGE_LOOP ( 'NONE', ( #11, #132, #27, #3 ) ) ;
#148 = CARTESIAN_POINT ( 'NONE',  ( 0.000000000000000000, 3.370000000000000107, 0.000000000000000000 ) ) ;
#149 = ADVANCED_FACE ( 'NONE', ( #195 ), #48, .T. ) ;
#150 = AXIS2_PLACEMENT_3D ( 'NONE', #112, #40, #93 ) ;
#151 = PERSON_AND_ORGANIZATION_ROLE ( 'design_owner' ) ;
#152 = APPROVAL_PERSON_ORGANIZATION ( #186, #158, #44 ) ;
#153 = ADVANCED_FACE ( 'NONE', ( #161 ), #177, .T. ) ;
#154 = VERTEX_POINT ( 'NONE', #129 ) ;
#155 = APPROVAL_PERSON_ORGANIZATION ( #97, #124, #17 ) ;
#156 = PERSON_AND_ORGANIZATION ( #145, #167 ) ;
#157 = AXIS2_PLACEMENT_3D ( 'NONE', #88, #91, #37 ) ;
#158 = APPROVAL ( #187, 'Î´Ö¸¶¨' ) ;
#159 = APPROVAL_ROLE ( '' ) ;
#160 = DIRECTION ( 'NONE',  ( -0.000000000000000000, 1.000000000000000000, -0.000000000000000000 ) ) ;
#161 = FACE_OUTER_BOUND ( 'NONE', #147, .T. ) ;
#162 = VERTEX_POINT ( 'NONE', #33 ) ;
#163 = ORIENTED_EDGE ( 'NONE', *, *, #20, .T. ) ;
#164 = APPLICATION_CONTEXT ( 'configuration controlled 3d designs of mechanical parts and assemblies' ) ;
#165 = CC_DESIGN_PERSON_AND_ORGANIZATION_ASSIGNMENT ( #121, #101, ( #98 ) ) ;
#166 = ORIENTED_EDGE ( 'NONE', *, *, #197, .T. ) ;
#167 = ORGANIZATION ( 'Î´Ö¸¶¨', 'Î´Ö¸¶¨', '' ) ;
#168 = CALENDAR_DATE ( 2024, 10, 5 ) ;
#169 = CALENDAR_DATE ( 2024, 10, 5 ) ;
#170 = AXIS2_PLACEMENT_3D ( 'NONE', #51, #160, #200 ) ;
#171 =( LENGTH_UNIT ( ) NAMED_UNIT ( * ) SI_UNIT ( .MILLI., .METRE. ) );
#172 = PRODUCT_DEFINITION_SHAPE ( 'NONE', 'NONE',  #104 ) ;
#173 = CC_DESIGN_APPROVAL ( #124, ( #104 ) ) ;
#174 = CIRCLE ( 'NONE', #80, 15.00000000000000000 ) ;
#175 = COORDINATED_UNIVERSAL_TIME_OFFSET ( 8, 0, .AHEAD. ) ;
#176 = CIRCLE ( 'NONE', #157, 129.2400000000000375 ) ;
#177 = CYLINDRICAL_SURFACE ( 'NONE', #137, 15.00000000000000000 ) ;
#178 = CYLINDRICAL_SURFACE ( 'NONE', #57, 15.00000000000000000 ) ;
#179 = EDGE_LOOP ( 'NONE', ( #166, #30, #42, #95 ) ) ;
#180 = LOCAL_TIME ( 9, 12, 2.000000000000000000, #193 ) ;
#181 = DIRECTION ( 'NONE',  ( 0.000000000000000000, 0.000000000000000000, 1.000000000000000000 ) ) ;
#182 = CC_DESIGN_PERSON_AND_ORGANIZATION_ASSIGNMENT ( #31, #151, ( #73 ) ) ;
#183 = LINE ( 'NONE', #142, #131 ) ;
#184 = VERTEX_POINT ( 'NONE', #58 ) ;
#185 = ORIENTED_EDGE ( 'NONE', *, *, #66, .T. ) ;
#186 = PERSON_AND_ORGANIZATION ( #145, #167 ) ;
#187 = APPROVAL_STATUS ( 'not_yet_approved' ) ;
#188 = EDGE_CURVE ( 'NONE', #53, #116, #118, .T. ) ;
#189 = DATE_AND_TIME ( #168, #140 ) ;
#190 = DESIGN_CONTEXT ( 'detailed design', #164, 'design' ) ;
#191 = DIRECTION ( 'NONE',  ( -0.000000000000000000, 1.000000000000000000, -0.000000000000000000 ) ) ;
#192 = CARTESIAN_POINT ( 'NONE',  ( 0.000000000000000000, -1.734723475976807094E-15, 0.000000000000000000 ) ) ;
#193 = COORDINATED_UNIVERSAL_TIME_OFFSET ( 8, 0, .AHEAD. ) ;
#194 = ORIENTED_EDGE ( 'NONE', *, *, #20, .F. ) ;
#195 = FACE_OUTER_BOUND ( 'NONE', #71, .T. ) ;
#196 = APPROVAL_DATE_TIME ( #59, #136 ) ;
#197 = EDGE_CURVE ( 'NONE', #184, #162, #5, .T. ) ;
#198 = CARTESIAN_POINT ( 'NONE',  ( 0.000000000000000000, 3.370000000000000107, 0.000000000000000000 ) ) ;
#199 = CC_DESIGN_SECURITY_CLASSIFICATION ( #19, ( #98 ) ) ;
#200 = DIRECTION ( 'NONE',  ( 0.000000000000000000, 0.000000000000000000, 1.000000000000000000 ) ) ;
#201 = EDGE_LOOP ( 'NONE', ( #194, #39, #185 ) ) ;
ENDSEC;
END-ISO-10303-21;
