ISO-10303-21;
HEADER;
FILE_DESCRIPTION (( 'STEP AP203' ),
    '1' );
FILE_NAME ('100574.STEP',
    '2024-05-09T08:27:19',
    ( '' ),
    ( '' ),
    'SwSTEP 2.0',
    'SolidWorks 2020',
    '' );
FILE_SCHEMA (( 'CONFIG_CONTROL_DESIGN' ));
ENDSEC;

DATA;
#1 = CLOSED_SHELL ( 'NONE', ( #63, #71, #110, #53, #30 ) ) ;
#2 = ORIENTED_EDGE ( 'NONE', *, *, #25, .T. ) ;
#3 = APPROVAL ( #7, 'Î´Ö¸¶¨' ) ;
#4 = DATE_AND_TIME ( #168, #6 ) ;
#5 = DATE_AND_TIME ( #93, #200 ) ;
#6 = LOCAL_TIME ( 16, 27, 19.00000000000000000, #69 ) ;
#7 = APPROVAL_STATUS ( 'not_yet_approved' ) ;
#8 = PERSON_AND_ORGANIZATION ( #14, #190 ) ;
#9 = CYLINDRICAL_SURFACE ( 'NONE', #175, 15.00000000000000000 ) ;
#10 = ORIENTED_EDGE ( 'NONE', *, *, #136, .T. ) ;
#11 = CIRCLE ( 'NONE', #130, 15.00000000000000000 ) ;
#12 = CARTESIAN_POINT ( 'NONE',  ( -15.00000000000000000, 2.499999999999996891, 0.000000000000000000 ) ) ;
#13 = CIRCLE ( 'NONE', #131, 41.29999999999999005 ) ;
#14 = PERSON ( 'Î´Ö¸¶¨', 'Î´Ö¸¶¨', 'Î´Ö¸¶¨', ('Î´Ö¸¶¨'), ('Î´Ö¸¶¨'), ('Î´Ö¸¶¨') ) ;
#15 = DESIGN_CONTEXT ( 'detailed design', #60, 'design' ) ;
#16 = EDGE_CURVE ( 'NONE', #121, #105, #87, .T. ) ;
#17 = PERSON_AND_ORGANIZATION_ROLE ( 'creator' ) ;
#18 = APPROVAL_ROLE ( '' ) ;
#19 =( LENGTH_UNIT ( ) NAMED_UNIT ( * ) SI_UNIT ( .MILLI., .METRE. ) );
#20 = CC_DESIGN_SECURITY_CLASSIFICATION ( #31, ( #111 ) ) ;
#21 = SHAPE_DEFINITION_REPRESENTATION ( #95, #128 ) ;
#22 = LOCAL_TIME ( 16, 27, 19.00000000000000000, #132 ) ;
#23 = AXIS2_PLACEMENT_3D ( 'NONE', #186, #74, #90 ) ;
#24 = DIRECTION ( 'NONE',  ( -3.829046462046298078E-17, 1.000000000000000000, -0.000000000000000000 ) ) ;
#25 = EDGE_CURVE ( 'NONE', #89, #39, #198, .T. ) ;
#26 = EDGE_LOOP ( 'NONE', ( #109, #76, #146 ) ) ;
#27 = DIRECTION ( 'NONE',  ( -1.000000000000000000, -2.891205793294678696E-17, 0.000000000000000000 ) ) ;
#28 = CC_DESIGN_PERSON_AND_ORGANIZATION_ASSIGNMENT ( #120, #83, ( #55 ) ) ;
#29 = VERTEX_POINT ( 'NONE', #119 ) ;
#30 = ADVANCED_FACE ( 'NONE', ( #169 ), #9, .T. ) ;
#31 = SECURITY_CLASSIFICATION ( '', '', #114 ) ;
#32 = AXIS2_PLACEMENT_3D ( 'NONE', #159, #124, #107 ) ;
#33 = DATE_AND_TIME ( #37, #68 ) ;
#34 = MECHANICAL_CONTEXT ( 'NONE', #163, 'mechanical' ) ;
#35 = PERSON_AND_ORGANIZATION ( #14, #190 ) ;
#36 = EDGE_LOOP ( 'NONE', ( #141, #10, #189, #195 ) ) ;
#37 = CALENDAR_DATE ( 2024, 9, 5 ) ;
#38 = CIRCLE ( 'NONE', #182, 41.29999999999999005 ) ;
#39 = VERTEX_POINT ( 'NONE', #196 ) ;
#40 = CARTESIAN_POINT ( 'NONE',  ( 4.814824860968089633E-32, -8.673617379884035472E-16, 0.000000000000000000 ) ) ;
#41 = DIRECTION ( 'NONE',  ( -3.829046462046298078E-17, 1.000000000000000000, -0.000000000000000000 ) ) ;
#42 = CARTESIAN_POINT ( 'NONE',  ( -0.0006800010524353472530, -35.97999999440191488, 0.000000000000000000 ) ) ;
#43 = CARTESIAN_POINT ( 'NONE',  ( 2.417302359510426190E-32, -6.313066147070424170E-16, 0.000000000000000000 ) ) ;
#44 = EDGE_LOOP ( 'NONE', ( #78, #72 ) ) ;
#45 = FACE_OUTER_BOUND ( 'NONE', #44, .T. ) ;
#46 = CARTESIAN_POINT ( 'NONE',  ( 4.814824860968089633E-32, -8.673617379884035472E-16, 0.000000000000000000 ) ) ;
#47 = LOCAL_TIME ( 16, 27, 19.00000000000000000, #85 ) ;
#48 = TOROIDAL_SURFACE ( 'NONE', #23, 0.0006800010524367249487, 41.29999999999999005 ) ;
#49 = PERSON_AND_ORGANIZATION ( #14, #190 ) ;
#50 = APPROVAL_ROLE ( '' ) ;
#51 = CALENDAR_DATE ( 2024, 9, 5 ) ;
#52 = DIRECTION ( 'NONE',  ( 0.000000000000000000, -0.000000000000000000, -1.000000000000000000 ) ) ;
#53 = ADVANCED_FACE ( 'NONE', ( #45 ), #77, .T. ) ;
#54 = PERSON_AND_ORGANIZATION ( #14, #190 ) ;
#55 = PRODUCT ( '100574', '100574', '', ( #34 ) ) ;
#56 = DIRECTION ( 'NONE',  ( -3.829046462046298078E-17, 1.000000000000000000, -0.000000000000000000 ) ) ;
#57 = DIRECTION ( 'NONE',  ( -1.224646799147353207E-16, -4.689229493531495974E-33, 1.000000000000000000 ) ) ;
#58 = ORIENTED_EDGE ( 'NONE', *, *, #100, .F. ) ;
#59 = CARTESIAN_POINT ( 'NONE',  ( -2.037052717808630580E-16, 5.320000000000000284, 0.000000000000000000 ) ) ;
#60 = APPLICATION_CONTEXT ( 'configuration controlled 3d designs of mechanical parts and assemblies' ) ;
#61 = CARTESIAN_POINT ( 'NONE',  ( -9.572616155115739340E-17, 2.499999999999998668, 0.000000000000000000 ) ) ;
#62 = AXIS2_PLACEMENT_3D ( 'NONE', #88, #180, #135 ) ;
#63 = ADVANCED_FACE ( 'NONE', ( #79 ), #139, .T. ) ;
#64 = AXIS2_PLACEMENT_3D ( 'NONE', #108, #122, #127 ) ;
#65 = CARTESIAN_POINT ( 'NONE',  ( -15.00000000000000000, -1.441718707295348302E-15, 0.000000000000000000 ) ) ;
#66 = MANIFOLD_SOLID_BREP ( 'Ðý×ª1', #1 ) ;
#67 = EDGE_LOOP ( 'NONE', ( #138, #158, #81 ) ) ;
#68 = LOCAL_TIME ( 16, 27, 19.00000000000000000, #164 ) ;
#69 = COORDINATED_UNIVERSAL_TIME_OFFSET ( 8, 0, .AHEAD. ) ;
#70 = PERSON_AND_ORGANIZATION_ROLE ( 'classification_officer' ) ;
#71 = ADVANCED_FACE ( 'NONE', ( #201 ), #48, .T. ) ;
#72 = ORIENTED_EDGE ( 'NONE', *, *, #136, .F. ) ;
#73 = DIRECTION ( 'NONE',  ( -1.000000000000000000, 0.000000000000000000, 0.000000000000000000 ) ) ;
#74 = DIRECTION ( 'NONE',  ( -3.829046462046298078E-17, 1.000000000000000000, -0.000000000000000000 ) ) ;
#75 = DIRECTION ( 'NONE',  ( 3.829046462046298078E-17, -1.000000000000000000, 0.000000000000000000 ) ) ;
#76 = ORIENTED_EDGE ( 'NONE', *, *, #178, .T. ) ;
#77 = PLANE ( 'NONE',  #113 ) ;
#78 = ORIENTED_EDGE ( 'NONE', *, *, #184, .F. ) ;
#79 = FACE_OUTER_BOUND ( 'NONE', #99, .T. ) ;
#80 = CIRCLE ( 'NONE', #101, 15.00000000000000000 ) ;
#81 = ORIENTED_EDGE ( 'NONE', *, *, #147, .T. ) ;
#82 = APPROVAL_ROLE ( '' ) ;
#83 = PERSON_AND_ORGANIZATION_ROLE ( 'design_owner' ) ;
#84 = CARTESIAN_POINT ( 'NONE',  ( -15.00000000000000000, 5.319999999999999396, 0.000000000000000000 ) ) ;
#85 = COORDINATED_UNIVERSAL_TIME_OFFSET ( 8, 0, .AHEAD. ) ;
#86 = AXIS2_PLACEMENT_3D ( 'NONE', #174, #172, #145 ) ;
#87 = LINE ( 'NONE', #84, #191 ) ;
#88 = CARTESIAN_POINT ( 'NONE',  ( 0.000000000000000000, 0.000000000000000000, 0.000000000000000000 ) ) ;
#89 = VERTEX_POINT ( 'NONE', #199 ) ;
#90 = DIRECTION ( 'NONE',  ( -1.000000000000000000, -3.829046462046298078E-17, 0.000000000000000000 ) ) ;
#91 = UNCERTAINTY_MEASURE_WITH_UNIT (LENGTH_MEASURE( 1.000000000000000082E-05 ), #19, 'distance_accuracy_value', 'NONE');
#92 = CC_DESIGN_APPROVAL ( #103, ( #111 ) ) ;
#93 = CALENDAR_DATE ( 2024, 9, 5 ) ;
#94 = APPROVAL_DATE_TIME ( #96, #112 ) ;
#95 = PRODUCT_DEFINITION_SHAPE ( 'NONE', 'NONE',  #126 ) ;
#96 = DATE_AND_TIME ( #177, #47 ) ;
#97 = CARTESIAN_POINT ( 'NONE',  ( 15.00000000000000000, 5.320000000000001172, 1.836970198721029589E-15 ) ) ;
#98 = COORDINATED_UNIVERSAL_TIME_OFFSET ( 8, 0, .AHEAD. ) ;
#99 = EDGE_LOOP ( 'NONE', ( #156, #2, #58, #185 ) ) ;
#100 = EDGE_CURVE ( 'NONE', #105, #39, #125, .T. ) ;
#101 = AXIS2_PLACEMENT_3D ( 'NONE', #61, #104, #27 ) ;
#102 = DIRECTION ( 'NONE',  ( 1.000000000000000000, 0.000000000000000000, 1.224646799147353207E-16 ) ) ;
#103 = APPROVAL ( #148, 'Î´Ö¸¶¨' ) ;
#104 = DIRECTION ( 'NONE',  ( -3.829046462046298078E-17, 1.000000000000000000, -0.000000000000000000 ) ) ;
#105 = VERTEX_POINT ( 'NONE', #12 ) ;
#106 = DIRECTION ( 'NONE',  ( -3.829046462046298078E-17, 1.000000000000000000, -0.000000000000000000 ) ) ;
#107 = DIRECTION ( 'NONE',  ( -1.000000000000000000, -5.782411586589357392E-17, 0.000000000000000000 ) ) ;
#108 = CARTESIAN_POINT ( 'NONE',  ( 1.377699088709119501E-15, -35.97999999440191488, 0.000000000000000000 ) ) ;
#109 = ORIENTED_EDGE ( 'NONE', *, *, #100, .T. ) ;
#110 = ADVANCED_FACE ( 'NONE', ( #187 ), #153, .T. ) ;
#111 = PRODUCT_DEFINITION_FORMATION_WITH_SPECIFIED_SOURCE ( 'ÈÎºÎ', '', #55, .NOT_KNOWN. ) ;
#112 = APPROVAL ( #176, 'Î´Ö¸¶¨' ) ;
#113 = AXIS2_PLACEMENT_3D ( 'NONE', #43, #75, #142 ) ;
#114 = SECURITY_CLASSIFICATION_LEVEL ( 'unclassified' ) ;
#115 = PERSON_AND_ORGANIZATION ( #14, #190 ) ;
#116 = DATE_AND_TIME ( #51, #22 ) ;
#117 = APPROVAL_DATE_TIME ( #5, #3 ) ;
#118 = PRODUCT_RELATED_PRODUCT_CATEGORY ( 'detail', '', ( #55 ) ) ;
#119 = CARTESIAN_POINT ( 'NONE',  ( -2.037052717808630580E-16, 5.320000000000000284, 0.000000000000000000 ) ) ;
#120 = PERSON_AND_ORGANIZATION ( #14, #190 ) ;
#121 = VERTEX_POINT ( 'NONE', #65 ) ;
#122 = DIRECTION ( 'NONE',  ( -3.829046462046298078E-17, 1.000000000000000000, -0.000000000000000000 ) ) ;
#123 = CC_DESIGN_APPROVAL ( #3, ( #126 ) ) ;
#124 = DIRECTION ( 'NONE',  ( -3.829046462046298078E-17, 1.000000000000000000, -0.000000000000000000 ) ) ;
#125 = CIRCLE ( 'NONE', #86, 15.00000000000000000 ) ;
#126 = PRODUCT_DEFINITION ( 'Î´Öª', '', #111, #15 ) ;
#127 = DIRECTION ( 'NONE',  ( -1.000000000000000000, -3.829046462046298078E-17, 0.000000000000000000 ) ) ;
#128 = ADVANCED_BREP_SHAPE_REPRESENTATION ( '100574', ( #66, #62 ), #160 ) ;
#129 = CC_DESIGN_DATE_AND_TIME_ASSIGNMENT ( #116, #165, ( #31 ) ) ;
#130 = AXIS2_PLACEMENT_3D ( 'NONE', #40, #154, #133 ) ;
#131 = AXIS2_PLACEMENT_3D ( 'NONE', #42, #52, #73 ) ;
#132 = COORDINATED_UNIVERSAL_TIME_OFFSET ( 8, 0, .AHEAD. ) ;
#133 = DIRECTION ( 'NONE',  ( -1.000000000000000000, -3.829046462046299311E-17, 0.000000000000000000 ) ) ;
#134 = PERSON_AND_ORGANIZATION ( #14, #190 ) ;
#135 = DIRECTION ( 'NONE',  ( 1.000000000000000000, 0.000000000000000000, 0.000000000000000000 ) ) ;
#136 = EDGE_CURVE ( 'NONE', #89, #121, #144, .T. ) ;
#137 = DIRECTION ( 'NONE',  ( -1.000000000000000000, -3.829046462046299311E-17, 0.000000000000000000 ) ) ;
#138 = ORIENTED_EDGE ( 'NONE', *, *, #178, .F. ) ;
#139 = CYLINDRICAL_SURFACE ( 'NONE', #32, 15.00000000000000000 ) ;
#140 = APPROVAL_PERSON_ORGANIZATION ( #134, #112, #18 ) ;
#141 = ORIENTED_EDGE ( 'NONE', *, *, #25, .F. ) ;
#142 = DIRECTION ( 'NONE',  ( 1.000000000000000000, 3.829046462046298078E-17, 0.000000000000000000 ) ) ;
#143 = EDGE_CURVE ( 'NONE', #39, #105, #80, .T. ) ;
#144 = CIRCLE ( 'NONE', #171, 15.00000000000000000 ) ;
#145 = DIRECTION ( 'NONE',  ( -1.000000000000000000, -2.891205793294678696E-17, 0.000000000000000000 ) ) ;
#146 = ORIENTED_EDGE ( 'NONE', *, *, #147, .F. ) ;
#147 = EDGE_CURVE ( 'NONE', #105, #29, #13, .T. ) ;
#148 = APPROVAL_STATUS ( 'not_yet_approved' ) ;
#149 = PERSON_AND_ORGANIZATION_ROLE ( 'creator' ) ;
#150 = PERSON_AND_ORGANIZATION ( #14, #190 ) ;
#151 = CC_DESIGN_PERSON_AND_ORGANIZATION_ASSIGNMENT ( #8, #149, ( #126 ) ) ;
#152 = CARTESIAN_POINT ( 'NONE',  ( 0.0006800010524381026444, -35.97999999440191488, 8.327611122834667236E-20 ) ) ;
#153 = TOROIDAL_SURFACE ( 'NONE', #64, 0.0006800010524367249487, 41.29999999999999005 ) ;
#154 = DIRECTION ( 'NONE',  ( -3.829046462046298078E-17, 1.000000000000000000, -0.000000000000000000 ) ) ;
#155 = DIRECTION ( 'NONE',  ( -1.000000000000000000, -5.782411586589357392E-17, 0.000000000000000000 ) ) ;
#156 = ORIENTED_EDGE ( 'NONE', *, *, #184, .T. ) ;
#157 = CC_DESIGN_APPROVAL ( #112, ( #31 ) ) ;
#158 = ORIENTED_EDGE ( 'NONE', *, *, #143, .T. ) ;
#159 = CARTESIAN_POINT ( 'NONE',  ( -2.037052717808630580E-16, 5.320000000000000284, 0.000000000000000000 ) ) ;
#160 =( GEOMETRIC_REPRESENTATION_CONTEXT ( 3 ) GLOBAL_UNCERTAINTY_ASSIGNED_CONTEXT ( ( #91 ) ) GLOBAL_UNIT_ASSIGNED_CONTEXT ( ( #19, #170, #194 ) ) REPRESENTATION_CONTEXT ( 'NONE', 'WORKASPACE' ) );
#161 = CC_DESIGN_DATE_AND_TIME_ASSIGNMENT ( #33, #181, ( #126 ) ) ;
#162 = VECTOR ( 'NONE', #56, 1000.000000000000000 ) ;
#163 = APPLICATION_CONTEXT ( 'configuration controlled 3d designs of mechanical parts and assemblies' ) ;
#164 = COORDINATED_UNIVERSAL_TIME_OFFSET ( 8, 0, .AHEAD. ) ;
#165 = DATE_TIME_ROLE ( 'classification_date' ) ;
#166 = APPROVAL_PERSON_ORGANIZATION ( #150, #3, #50 ) ;
#167 = APPLICATION_PROTOCOL_DEFINITION ( 'international standard', 'config_control_design', 1994, #60 ) ;
#168 = CALENDAR_DATE ( 2024, 9, 5 ) ;
#169 = FACE_OUTER_BOUND ( 'NONE', #36, .T. ) ;
#170 =( NAMED_UNIT ( * ) PLANE_ANGLE_UNIT ( ) SI_UNIT ( $, .RADIAN. ) );
#171 = AXIS2_PLACEMENT_3D ( 'NONE', #46, #106, #137 ) ;
#172 = DIRECTION ( 'NONE',  ( -3.829046462046298078E-17, 1.000000000000000000, -0.000000000000000000 ) ) ;
#173 = CC_DESIGN_PERSON_AND_ORGANIZATION_ASSIGNMENT ( #49, #17, ( #111 ) ) ;
#174 = CARTESIAN_POINT ( 'NONE',  ( -9.572616155115739340E-17, 2.499999999999998668, 0.000000000000000000 ) ) ;
#175 = AXIS2_PLACEMENT_3D ( 'NONE', #59, #41, #155 ) ;
#176 = APPROVAL_STATUS ( 'not_yet_approved' ) ;
#177 = CALENDAR_DATE ( 2024, 9, 5 ) ;
#178 = EDGE_CURVE ( 'NONE', #39, #29, #38, .T. ) ;
#179 = APPLICATION_PROTOCOL_DEFINITION ( 'international standard', 'config_control_design', 1994, #163 ) ;
#180 = DIRECTION ( 'NONE',  ( 0.000000000000000000, 0.000000000000000000, 1.000000000000000000 ) ) ;
#181 = DATE_TIME_ROLE ( 'creation_date' ) ;
#182 = AXIS2_PLACEMENT_3D ( 'NONE', #152, #57, #102 ) ;
#183 = APPROVAL_PERSON_ORGANIZATION ( #35, #103, #82 ) ;
#184 = EDGE_CURVE ( 'NONE', #121, #89, #11, .T. ) ;
#185 = ORIENTED_EDGE ( 'NONE', *, *, #16, .F. ) ;
#186 = CARTESIAN_POINT ( 'NONE',  ( 1.377699088709119501E-15, -35.97999999440191488, 0.000000000000000000 ) ) ;
#187 = FACE_OUTER_BOUND ( 'NONE', #67, .T. ) ;
#188 = CC_DESIGN_PERSON_AND_ORGANIZATION_ASSIGNMENT ( #115, #70, ( #31 ) ) ;
#189 = ORIENTED_EDGE ( 'NONE', *, *, #16, .T. ) ;
#190 = ORGANIZATION ( 'Î´Ö¸¶¨', 'Î´Ö¸¶¨', '' ) ;
#191 = VECTOR ( 'NONE', #24, 1000.000000000000000 ) ;
#192 = PERSON_AND_ORGANIZATION_ROLE ( 'design_supplier' ) ;
#193 = APPROVAL_DATE_TIME ( #4, #103 ) ;
#194 =( NAMED_UNIT ( * ) SI_UNIT ( $, .STERADIAN. ) SOLID_ANGLE_UNIT ( ) );
#195 = ORIENTED_EDGE ( 'NONE', *, *, #143, .F. ) ;
#196 = CARTESIAN_POINT ( 'NONE',  ( 14.99999999999999822, 2.499999999999996891, 1.836970198721029194E-15 ) ) ;
#197 = CC_DESIGN_PERSON_AND_ORGANIZATION_ASSIGNMENT ( #54, #192, ( #111 ) ) ;
#198 = LINE ( 'NONE', #97, #162 ) ;
#199 = CARTESIAN_POINT ( 'NONE',  ( 15.00000000000000000, -2.930047686814588417E-16, 1.836970198721029589E-15 ) ) ;
#200 = LOCAL_TIME ( 16, 27, 19.00000000000000000, #98 ) ;
#201 = FACE_OUTER_BOUND ( 'NONE', #26, .T. ) ;
ENDSEC;
END-ISO-10303-21;
