ISO-10303-21;
HEADER;
FILE_DESCRIPTION (( 'STEP AP203' ),
    '1' );
FILE_NAME ('100546.STEP',
    '2024-05-08T09:51:00',
    ( '' ),
    ( '' ),
    'SwSTEP 2.0',
    'SolidWorks 2020',
    '' );
FILE_SCHEMA (( 'CONFIG_CONTROL_DESIGN' ));
ENDSEC;

DATA;
#1 = PERSON_AND_ORGANIZATION ( #89, #137 ) ;
#2 = AXIS2_PLACEMENT_3D ( 'NONE', #60, #25, #96 ) ;
#3 = DIRECTION ( 'NONE',  ( 1.224646799147353207E-16, 0.000000000000000000, -1.000000000000000000 ) ) ;
#4 = LOCAL_TIME ( 17, 51, 0.000000000000000000, #102 ) ;
#5 = FACE_OUTER_BOUND ( 'NONE', #143, .T. ) ;
#6 = FACE_OUTER_BOUND ( 'NONE', #56, .T. ) ;
#7 = DIRECTION ( 'NONE',  ( -0.000000000000000000, 1.000000000000000000, -0.000000000000000000 ) ) ;
#8 = DATE_AND_TIME ( #128, #152 ) ;
#9 = APPLICATION_PROTOCOL_DEFINITION ( 'international standard', 'config_control_design', 1994, #189 ) ;
#10 = CIRCLE ( 'NONE', #65, 12.50000000000000000 ) ;
#11 = ORIENTED_EDGE ( 'NONE', *, *, #70, .T. ) ;
#12 = ADVANCED_FACE ( 'NONE', ( #106 ), #120, .T. ) ;
#13 = AXIS2_PLACEMENT_3D ( 'NONE', #74, #112, #95 ) ;
#14 = DATE_TIME_ROLE ( 'creation_date' ) ;
#15 = ORIENTED_EDGE ( 'NONE', *, *, #117, .T. ) ;
#16 = AXIS2_PLACEMENT_3D ( 'NONE', #142, #133, #110 ) ;
#17 = ORIENTED_EDGE ( 'NONE', *, *, #34, .F. ) ;
#18 = MECHANICAL_CONTEXT ( 'NONE', #189, 'mechanical' ) ;
#19 = PRODUCT_DEFINITION ( 'Î´Öª', '', #162, #181 ) ;
#20 = LINE ( 'NONE', #41, #116 ) ;
#21 = COORDINATED_UNIVERSAL_TIME_OFFSET ( 8, 0, .AHEAD. ) ;
#22 = FACE_OUTER_BOUND ( 'NONE', #84, .T. ) ;
#23 = TOROIDAL_SURFACE ( 'NONE', #100, 2.942557403500804192, 1033.599999999999909 ) ;
#24 = APPROVAL_STATUS ( 'not_yet_approved' ) ;
#25 = DIRECTION ( 'NONE',  ( -0.000000000000000000, 1.000000000000000000, -0.000000000000000000 ) ) ;
#26 = PRODUCT ( '100546', '100546', '', ( #18 ) ) ;
#27 = APPLICATION_PROTOCOL_DEFINITION ( 'international standard', 'config_control_design', 1994, #115 ) ;
#28 = CIRCLE ( 'NONE', #121, 1033.599999999999909 ) ;
#29 = APPROVAL_ROLE ( '' ) ;
#30 = APPROVAL ( #114, 'Î´Ö¸¶¨' ) ;
#31 = COORDINATED_UNIVERSAL_TIME_OFFSET ( 8, 0, .AHEAD. ) ;
#32 = PERSON_AND_ORGANIZATION ( #89, #137 ) ;
#33 = SECURITY_CLASSIFICATION ( '', '', #132 ) ;
#34 = EDGE_CURVE ( 'NONE', #51, #151, #28, .T. ) ;
#35 = ORIENTED_EDGE ( 'NONE', *, *, #163, .T. ) ;
#36 = DIRECTION ( 'NONE',  ( -0.000000000000000000, 1.000000000000000000, -0.000000000000000000 ) ) ;
#37 = SHAPE_DEFINITION_REPRESENTATION ( #176, #191 ) ;
#38 = DIRECTION ( 'NONE',  ( 0.000000000000000000, 0.000000000000000000, 1.000000000000000000 ) ) ;
#39 = COORDINATED_UNIVERSAL_TIME_OFFSET ( 8, 0, .AHEAD. ) ;
#40 = ADVANCED_FACE ( 'NONE', ( #5 ), #138, .T. ) ;
#41 = CARTESIAN_POINT ( 'NONE',  ( 1.530808498934191521E-15, 2.040000000000000036, -12.50000000000000000 ) ) ;
#42 = CC_DESIGN_APPROVAL ( #30, ( #19 ) ) ;
#43 = DIRECTION ( 'NONE',  ( 0.000000000000000000, 0.000000000000000000, 1.000000000000000000 ) ) ;
#44 = PERSON_AND_ORGANIZATION_ROLE ( 'design_owner' ) ;
#45 = EDGE_LOOP ( 'NONE', ( #108, #122, #123 ) ) ;
#46 = CC_DESIGN_PERSON_AND_ORGANIZATION_ASSIGNMENT ( #73, #150, ( #162 ) ) ;
#47 = AXIS2_PLACEMENT_3D ( 'NONE', #185, #98, #159 ) ;
#48 = DATE_AND_TIME ( #164, #201 ) ;
#49 = ORIENTED_EDGE ( 'NONE', *, *, #193, .T. ) ;
#50 = CARTESIAN_POINT ( 'NONE',  ( 3.603593505504606522E-16, -1031.555811405951317, -2.942557403500804192 ) ) ;
#51 = VERTEX_POINT ( 'NONE', #76 ) ;
#52 = ADVANCED_FACE ( 'NONE', ( #170 ), #23, .T. ) ;
#53 = PERSON_AND_ORGANIZATION_ROLE ( 'design_supplier' ) ;
#54 = ORIENTED_EDGE ( 'NONE', *, *, #70, .F. ) ;
#55 = PRODUCT_RELATED_PRODUCT_CATEGORY ( 'detail', '', ( #26 ) ) ;
#56 = EDGE_LOOP ( 'NONE', ( #167, #15, #179, #69 ) ) ;
#57 = CIRCLE ( 'NONE', #88, 12.50000000000000000 ) ;
#58 = DIRECTION ( 'NONE',  ( -0.000000000000000000, 1.000000000000000000, -0.000000000000000000 ) ) ;
#59 = DIRECTION ( 'NONE',  ( 0.000000000000000000, 0.000000000000000000, 1.000000000000000000 ) ) ;
#60 = CARTESIAN_POINT ( 'NONE',  ( 0.000000000000000000, 1.999999999999998224, 0.000000000000000000 ) ) ;
#61 = DATE_TIME_ROLE ( 'classification_date' ) ;
#62 = APPROVAL_PERSON_ORGANIZATION ( #158, #134, #80 ) ;
#63 = CARTESIAN_POINT ( 'NONE',  ( 0.000000000000000000, 1.999999999999998224, 0.000000000000000000 ) ) ;
#64 = VERTEX_POINT ( 'NONE', #156 ) ;
#65 = AXIS2_PLACEMENT_3D ( 'NONE', #63, #36, #38 ) ;
#66 = APPROVAL_DATE_TIME ( #48, #30 ) ;
#67 = DATE_AND_TIME ( #86, #72 ) ;
#68 = ORIENTED_EDGE ( 'NONE', *, *, #111, .T. ) ;
#69 = ORIENTED_EDGE ( 'NONE', *, *, #193, .F. ) ;
#70 = EDGE_CURVE ( 'NONE', #51, #64, #10, .T. ) ;
#71 = VERTEX_POINT ( 'NONE', #93 ) ;
#72 = LOCAL_TIME ( 17, 51, 0.000000000000000000, #31 ) ;
#73 = PERSON_AND_ORGANIZATION ( #89, #137 ) ;
#74 = CARTESIAN_POINT ( 'NONE',  ( 0.000000000000000000, -1031.555811405951317, 2.942557403500804192 ) ) ;
#75 = AXIS2_PLACEMENT_3D ( 'NONE', #168, #147, #149 ) ;
#76 = CARTESIAN_POINT ( 'NONE',  ( 1.530808498933614470E-15, 2.000000000000000000, -12.49999999999528555 ) ) ;
#77 = PERSON_AND_ORGANIZATION ( #89, #137 ) ;
#78 = APPROVAL ( #105, 'Î´Ö¸¶¨' ) ;
#79 =( NAMED_UNIT ( * ) PLANE_ANGLE_UNIT ( ) SI_UNIT ( $, .RADIAN. ) );
#80 = APPROVAL_ROLE ( '' ) ;
#81 = DIRECTION ( 'NONE',  ( -0.000000000000000000, 1.000000000000000000, -0.000000000000000000 ) ) ;
#82 =( GEOMETRIC_REPRESENTATION_CONTEXT ( 3 ) GLOBAL_UNCERTAINTY_ASSIGNED_CONTEXT ( ( #161 ) ) GLOBAL_UNIT_ASSIGNED_CONTEXT ( ( #188, #79, #183 ) ) REPRESENTATION_CONTEXT ( 'NONE', 'WORKASPACE' ) );
#83 = CC_DESIGN_PERSON_AND_ORGANIZATION_ASSIGNMENT ( #175, #44, ( #26 ) ) ;
#84 = EDGE_LOOP ( 'NONE', ( #17, #11, #35 ) ) ;
#85 = EDGE_CURVE ( 'NONE', #71, #109, #145, .T. ) ;
#86 = CALENDAR_DATE ( 2024, 8, 5 ) ;
#87 = DIRECTION ( 'NONE',  ( 1.000000000000000000, 0.000000000000000000, 1.224646799147353207E-16 ) ) ;
#88 = AXIS2_PLACEMENT_3D ( 'NONE', #157, #58, #43 ) ;
#89 = PERSON ( 'Î´Ö¸¶¨', 'Î´Ö¸¶¨', 'Î´Ö¸¶¨', ('Î´Ö¸¶¨'), ('Î´Ö¸¶¨'), ('Î´Ö¸¶¨') ) ;
#90 = PERSON_AND_ORGANIZATION ( #89, #137 ) ;
#91 = CC_DESIGN_APPROVAL ( #134, ( #33 ) ) ;
#92 = ORIENTED_EDGE ( 'NONE', *, *, #85, .F. ) ;
#93 = CARTESIAN_POINT ( 'NONE',  ( 0.000000000000000000, -1.734723475976807094E-15, 12.50000000000000000 ) ) ;
#94 = CARTESIAN_POINT ( 'NONE',  ( 0.000000000000000000, -1031.555811405951317, 0.000000000000000000 ) ) ;
#95 = DIRECTION ( 'NONE',  ( 0.000000000000000000, 0.000000000000000000, 1.000000000000000000 ) ) ;
#96 = DIRECTION ( 'NONE',  ( 0.000000000000000000, 0.000000000000000000, 1.000000000000000000 ) ) ;
#97 = CC_DESIGN_DATE_AND_TIME_ASSIGNMENT ( #8, #61, ( #33 ) ) ;
#98 = DIRECTION ( 'NONE',  ( 0.000000000000000000, 0.000000000000000000, 1.000000000000000000 ) ) ;
#99 = PERSON_AND_ORGANIZATION ( #89, #137 ) ;
#100 = AXIS2_PLACEMENT_3D ( 'NONE', #194, #187, #129 ) ;
#101 = PERSON_AND_ORGANIZATION_ROLE ( 'classification_officer' ) ;
#102 = COORDINATED_UNIVERSAL_TIME_OFFSET ( 8, 0, .AHEAD. ) ;
#103 = APPROVAL_PERSON_ORGANIZATION ( #99, #30, #104 ) ;
#104 = APPROVAL_ROLE ( '' ) ;
#105 = APPROVAL_STATUS ( 'not_yet_approved' ) ;
#106 = FACE_OUTER_BOUND ( 'NONE', #190, .T. ) ;
#107 = APPROVAL_DATE_TIME ( #200, #78 ) ;
#108 = ORIENTED_EDGE ( 'NONE', *, *, #136, .T. ) ;
#109 = VERTEX_POINT ( 'NONE', #113 ) ;
#110 = DIRECTION ( 'NONE',  ( 0.000000000000000000, 0.000000000000000000, 1.000000000000000000 ) ) ;
#111 = EDGE_CURVE ( 'NONE', #109, #71, #57, .T. ) ;
#112 = DIRECTION ( 'NONE',  ( -1.000000000000000000, 0.000000000000000000, 0.000000000000000000 ) ) ;
#113 = CARTESIAN_POINT ( 'NONE',  ( 1.530808498934191521E-15, -1.734723475976807094E-15, -12.50000000000000000 ) ) ;
#114 = APPROVAL_STATUS ( 'not_yet_approved' ) ;
#115 = APPLICATION_CONTEXT ( 'configuration controlled 3d designs of mechanical parts and assemblies' ) ;
#116 = VECTOR ( 'NONE', #81, 1000.000000000000000 ) ;
#117 = EDGE_CURVE ( 'NONE', #109, #51, #20, .T. ) ;
#118 = MANIFOLD_SOLID_BREP ( 'Ðý×ª1', #195 ) ;
#119 = DIRECTION ( 'NONE',  ( -0.000000000000000000, 1.000000000000000000, -0.000000000000000000 ) ) ;
#120 = PLANE ( 'NONE',  #75 ) ;
#121 = AXIS2_PLACEMENT_3D ( 'NONE', #50, #87, #3 ) ;
#122 = ORIENTED_EDGE ( 'NONE', *, *, #34, .T. ) ;
#123 = ORIENTED_EDGE ( 'NONE', *, *, #163, .F. ) ;
#124 = CARTESIAN_POINT ( 'NONE',  ( 0.000000000000000000, 2.040000000000000036, 0.000000000000000000 ) ) ;
#125 = CC_DESIGN_PERSON_AND_ORGANIZATION_ASSIGNMENT ( #77, #101, ( #33 ) ) ;
#126 = CARTESIAN_POINT ( 'NONE',  ( 0.000000000000000000, 2.040000000000000036, 0.000000000000000000 ) ) ;
#127 = ADVANCED_FACE ( 'NONE', ( #6 ), #169, .T. ) ;
#128 = CALENDAR_DATE ( 2024, 8, 5 ) ;
#129 = DIRECTION ( 'NONE',  ( 0.000000000000000000, 0.000000000000000000, 1.000000000000000000 ) ) ;
#130 = CC_DESIGN_APPROVAL ( #78, ( #162 ) ) ;
#131 = LINE ( 'NONE', #139, #192 ) ;
#132 = SECURITY_CLASSIFICATION_LEVEL ( 'unclassified' ) ;
#133 = DIRECTION ( 'NONE',  ( -0.000000000000000000, 1.000000000000000000, -0.000000000000000000 ) ) ;
#134 = APPROVAL ( #24, 'Î´Ö¸¶¨' ) ;
#135 = AXIS2_PLACEMENT_3D ( 'NONE', #94, #174, #59 ) ;
#136 = EDGE_CURVE ( 'NONE', #64, #51, #155, .T. ) ;
#137 = ORGANIZATION ( 'Î´Ö¸¶¨', 'Î´Ö¸¶¨', '' ) ;
#138 = CYLINDRICAL_SURFACE ( 'NONE', #177, 12.50000000000000000 ) ;
#139 = CARTESIAN_POINT ( 'NONE',  ( 0.000000000000000000, 2.040000000000000036, 12.50000000000000000 ) ) ;
#140 = ADVANCED_FACE ( 'NONE', ( #22 ), #172, .T. ) ;
#141 = CALENDAR_DATE ( 2024, 8, 5 ) ;
#142 = CARTESIAN_POINT ( 'NONE',  ( 0.000000000000000000, 2.040000000000000036, 0.000000000000000000 ) ) ;
#143 = EDGE_LOOP ( 'NONE', ( #165, #68, #49, #54 ) ) ;
#144 = CALENDAR_DATE ( 2024, 8, 5 ) ;
#145 = CIRCLE ( 'NONE', #148, 12.50000000000000000 ) ;
#146 = PERSON_AND_ORGANIZATION_ROLE ( 'creator' ) ;
#147 = DIRECTION ( 'NONE',  ( 0.000000000000000000, -1.000000000000000000, 0.000000000000000000 ) ) ;
#148 = AXIS2_PLACEMENT_3D ( 'NONE', #154, #173, #171 ) ;
#149 = DIRECTION ( 'NONE',  ( 0.000000000000000000, -0.000000000000000000, -1.000000000000000000 ) ) ;
#150 = PERSON_AND_ORGANIZATION_ROLE ( 'creator' ) ;
#151 = VERTEX_POINT ( 'NONE', #126 ) ;
#152 = LOCAL_TIME ( 17, 51, 0.000000000000000000, #39 ) ;
#153 = ORIENTED_EDGE ( 'NONE', *, *, #111, .F. ) ;
#154 = CARTESIAN_POINT ( 'NONE',  ( 0.000000000000000000, -1.734723475976807094E-15, 0.000000000000000000 ) ) ;
#155 = CIRCLE ( 'NONE', #2, 12.50000000000000000 ) ;
#156 = CARTESIAN_POINT ( 'NONE',  ( 0.000000000000000000, 2.000000000000000000, 12.49999999999528555 ) ) ;
#157 = CARTESIAN_POINT ( 'NONE',  ( 0.000000000000000000, -1.734723475976807094E-15, 0.000000000000000000 ) ) ;
#158 = PERSON_AND_ORGANIZATION ( #89, #137 ) ;
#159 = DIRECTION ( 'NONE',  ( 1.000000000000000000, 0.000000000000000000, 0.000000000000000000 ) ) ;
#160 = COORDINATED_UNIVERSAL_TIME_OFFSET ( 8, 0, .AHEAD. ) ;
#161 = UNCERTAINTY_MEASURE_WITH_UNIT (LENGTH_MEASURE( 1.000000000000000082E-05 ), #188, 'distance_accuracy_value', 'NONE');
#162 = PRODUCT_DEFINITION_FORMATION_WITH_SPECIFIED_SOURCE ( 'ÈÎºÎ', '', #26, .NOT_KNOWN. ) ;
#163 = EDGE_CURVE ( 'NONE', #64, #151, #182, .T. ) ;
#164 = CALENDAR_DATE ( 2024, 8, 5 ) ;
#165 = ORIENTED_EDGE ( 'NONE', *, *, #117, .F. ) ;
#166 = CC_DESIGN_PERSON_AND_ORGANIZATION_ASSIGNMENT ( #90, #53, ( #162 ) ) ;
#167 = ORIENTED_EDGE ( 'NONE', *, *, #85, .T. ) ;
#168 = CARTESIAN_POINT ( 'NONE',  ( 0.000000000000000000, -7.654042494670956620E-16, 0.000000000000000000 ) ) ;
#169 = CYLINDRICAL_SURFACE ( 'NONE', #16, 12.50000000000000000 ) ;
#170 = FACE_OUTER_BOUND ( 'NONE', #45, .T. ) ;
#171 = DIRECTION ( 'NONE',  ( 0.000000000000000000, 0.000000000000000000, 1.000000000000000000 ) ) ;
#172 = TOROIDAL_SURFACE ( 'NONE', #135, 2.942557403500804192, 1033.599999999999909 ) ;
#173 = DIRECTION ( 'NONE',  ( -0.000000000000000000, 1.000000000000000000, -0.000000000000000000 ) ) ;
#174 = DIRECTION ( 'NONE',  ( -0.000000000000000000, 1.000000000000000000, -0.000000000000000000 ) ) ;
#175 = PERSON_AND_ORGANIZATION ( #89, #137 ) ;
#176 = PRODUCT_DEFINITION_SHAPE ( 'NONE', 'NONE',  #19 ) ;
#177 = AXIS2_PLACEMENT_3D ( 'NONE', #124, #119, #180 ) ;
#178 = LOCAL_TIME ( 17, 51, 0.000000000000000000, #21 ) ;
#179 = ORIENTED_EDGE ( 'NONE', *, *, #136, .F. ) ;
#180 = DIRECTION ( 'NONE',  ( 0.000000000000000000, 0.000000000000000000, 1.000000000000000000 ) ) ;
#181 = DESIGN_CONTEXT ( 'detailed design', #115, 'design' ) ;
#182 = CIRCLE ( 'NONE', #13, 1033.599999999999909 ) ;
#183 =( NAMED_UNIT ( * ) SI_UNIT ( $, .STERADIAN. ) SOLID_ANGLE_UNIT ( ) );
#184 = APPROVAL_DATE_TIME ( #198, #134 ) ;
#185 = CARTESIAN_POINT ( 'NONE',  ( 0.000000000000000000, 0.000000000000000000, 0.000000000000000000 ) ) ;
#186 = APPROVAL_PERSON_ORGANIZATION ( #1, #78, #29 ) ;
#187 = DIRECTION ( 'NONE',  ( -0.000000000000000000, 1.000000000000000000, -0.000000000000000000 ) ) ;
#188 =( LENGTH_UNIT ( ) NAMED_UNIT ( * ) SI_UNIT ( .MILLI., .METRE. ) );
#189 = APPLICATION_CONTEXT ( 'configuration controlled 3d designs of mechanical parts and assemblies' ) ;
#190 = EDGE_LOOP ( 'NONE', ( #92, #153 ) ) ;
#191 = ADVANCED_BREP_SHAPE_REPRESENTATION ( '100546', ( #118, #47 ), #82 ) ;
#192 = VECTOR ( 'NONE', #7, 1000.000000000000000 ) ;
#193 = EDGE_CURVE ( 'NONE', #71, #64, #131, .T. ) ;
#194 = CARTESIAN_POINT ( 'NONE',  ( 0.000000000000000000, -1031.555811405951317, 0.000000000000000000 ) ) ;
#195 = CLOSED_SHELL ( 'NONE', ( #127, #52, #140, #12, #40 ) ) ;
#196 = CC_DESIGN_PERSON_AND_ORGANIZATION_ASSIGNMENT ( #32, #146, ( #19 ) ) ;
#197 = CC_DESIGN_DATE_AND_TIME_ASSIGNMENT ( #67, #14, ( #19 ) ) ;
#198 = DATE_AND_TIME ( #141, #178 ) ;
#199 = CC_DESIGN_SECURITY_CLASSIFICATION ( #33, ( #162 ) ) ;
#200 = DATE_AND_TIME ( #144, #4 ) ;
#201 = LOCAL_TIME ( 17, 51, 0.000000000000000000, #160 ) ;
ENDSEC;
END-ISO-10303-21;
