ISO-10303-21;
HEADER;
FILE_DESCRIPTION (( 'STEP AP203' ),
    '1' );
FILE_NAME ('100545.STEP',
    '2024-05-08T09:48:15',
    ( '' ),
    ( '' ),
    'SwSTEP 2.0',
    'SolidWorks 2020',
    '' );
FILE_SCHEMA (( 'CONFIG_CONTROL_DESIGN' ));
ENDSEC;

DATA;
#1 = CARTESIAN_POINT ( 'NONE',  ( 0.000000000000000000, -1.734723475976807094E-15, 12.50000000000000000 ) ) ;
#2 = DIRECTION ( 'NONE',  ( -0.000000000000000000, 1.000000000000000000, -0.000000000000000000 ) ) ;
#3 = ORIENTED_EDGE ( 'NONE', *, *, #145, .T. ) ;
#4 = CARTESIAN_POINT ( 'NONE',  ( 0.000000000000000000, 0.000000000000000000, 0.000000000000000000 ) ) ;
#5 = CARTESIAN_POINT ( 'NONE',  ( 0.000000000000000000, 2.093999999999999861, 12.50000000000000000 ) ) ;
#6 = EDGE_CURVE ( 'NONE', #108, #28, #81, .T. ) ;
#7 = LOCAL_TIME ( 17, 48, 15.00000000000000000, #71 ) ;
#8 = PRODUCT ( '100545', '100545', '', ( #164 ) ) ;
#9 = DATE_AND_TIME ( #146, #97 ) ;
#10 = APPROVAL_ROLE ( '' ) ;
#11 = PERSON_AND_ORGANIZATION_ROLE ( 'classification_officer' ) ;
#12 = PERSON_AND_ORGANIZATION ( #132, #87 ) ;
#13 = FACE_OUTER_BOUND ( 'NONE', #137, .T. ) ;
#14 = EDGE_CURVE ( 'NONE', #53, #73, #91, .T. ) ;
#15 = ORIENTED_EDGE ( 'NONE', *, *, #113, .T. ) ;
#16 = CARTESIAN_POINT ( 'NONE',  ( 0.000000000000000000, -7.654042494670957606E-16, 0.000000000000000000 ) ) ;
#17 = PRODUCT_DEFINITION_FORMATION_WITH_SPECIFIED_SOURCE ( 'ÈÎºÎ', '', #8, .NOT_KNOWN. ) ;
#18 = DIRECTION ( 'NONE',  ( -0.000000000000000000, 1.000000000000000000, -0.000000000000000000 ) ) ;
#19 =( LENGTH_UNIT ( ) NAMED_UNIT ( * ) SI_UNIT ( .MILLI., .METRE. ) );
#20 = ORIENTED_EDGE ( 'NONE', *, *, #6, .F. ) ;
#21 = CC_DESIGN_PERSON_AND_ORGANIZATION_ASSIGNMENT ( #148, #40, ( #17 ) ) ;
#22 = CC_DESIGN_PERSON_AND_ORGANIZATION_ASSIGNMENT ( #101, #69, ( #182 ) ) ;
#23 = APPROVAL_ROLE ( '' ) ;
#24 = PERSON_AND_ORGANIZATION ( #132, #87 ) ;
#25 = APPROVAL_DATE_TIME ( #9, #82 ) ;
#26 = ORIENTED_EDGE ( 'NONE', *, *, #85, .T. ) ;
#27 = ORIENTED_EDGE ( 'NONE', *, *, #145, .F. ) ;
#28 = VERTEX_POINT ( 'NONE', #44 ) ;
#29 = CARTESIAN_POINT ( 'NONE',  ( 0.000000000000000000, -1.734723475976807094E-15, 0.000000000000000000 ) ) ;
#30 = DIRECTION ( 'NONE',  ( 0.000000000000000000, 0.000000000000000000, 1.000000000000000000 ) ) ;
#31 = ADVANCED_FACE ( 'NONE', ( #13 ), #79, .T. ) ;
#32 = DIRECTION ( 'NONE',  ( -0.000000000000000000, 1.000000000000000000, -0.000000000000000000 ) ) ;
#33 = VECTOR ( 'NONE', #58, 1000.000000000000000 ) ;
#34 = APPROVAL ( #201, 'Î´Ö¸¶¨' ) ;
#35 = AXIS2_PLACEMENT_3D ( 'NONE', #123, #174, #142 ) ;
#36 = DATE_AND_TIME ( #116, #127 ) ;
#37 = DATE_TIME_ROLE ( 'creation_date' ) ;
#38 = PERSON_AND_ORGANIZATION ( #132, #87 ) ;
#39 = CALENDAR_DATE ( 2024, 8, 5 ) ;
#40 = PERSON_AND_ORGANIZATION_ROLE ( 'creator' ) ;
#41 =( NAMED_UNIT ( * ) SI_UNIT ( $, .STERADIAN. ) SOLID_ANGLE_UNIT ( ) );
#42 = ORIENTED_EDGE ( 'NONE', *, *, #6, .T. ) ;
#43 = DIRECTION ( 'NONE',  ( 0.000000000000000000, 0.000000000000000000, 1.000000000000000000 ) ) ;
#44 = CARTESIAN_POINT ( 'NONE',  ( 0.000000000000000000, 2.093999999999999861, 0.000000000000000000 ) ) ;
#45 = CARTESIAN_POINT ( 'NONE',  ( 0.000000000000000000, -824.7859993724237029, 0.000000000000000000 ) ) ;
#46 = DIRECTION ( 'NONE',  ( 0.000000000000000000, 0.000000000000000000, 1.000000000000000000 ) ) ;
#47 = APPROVAL_PERSON_ORGANIZATION ( #24, #195, #86 ) ;
#48 = TOROIDAL_SURFACE ( 'NONE', #66, 0.03221584471926625809, 826.8800000000001091 ) ;
#49 = CC_DESIGN_PERSON_AND_ORGANIZATION_ASSIGNMENT ( #119, #118, ( #8 ) ) ;
#50 = APPLICATION_CONTEXT ( 'configuration controlled 3d designs of mechanical parts and assemblies' ) ;
#51 = EDGE_CURVE ( 'NONE', #73, #28, #185, .T. ) ;
#52 = SECURITY_CLASSIFICATION ( '', '', #163 ) ;
#53 = VERTEX_POINT ( 'NONE', #1 ) ;
#54 = COORDINATED_UNIVERSAL_TIME_OFFSET ( 8, 0, .AHEAD. ) ;
#55 = ADVANCED_FACE ( 'NONE', ( #192 ), #57, .T. ) ;
#56 = CARTESIAN_POINT ( 'NONE',  ( 0.000000000000000000, 1.999999999999998224, 0.000000000000000000 ) ) ;
#57 = CYLINDRICAL_SURFACE ( 'NONE', #178, 12.50000000000000000 ) ;
#58 = DIRECTION ( 'NONE',  ( -0.000000000000000000, 1.000000000000000000, -0.000000000000000000 ) ) ;
#59 = DIRECTION ( 'NONE',  ( 1.000000000000000000, 0.000000000000000000, 1.224646799147353207E-16 ) ) ;
#60 = CARTESIAN_POINT ( 'NONE',  ( 1.530808498934191521E-15, 2.093999999999999861, -12.50000000000000000 ) ) ;
#61 = AXIS2_PLACEMENT_3D ( 'NONE', #56, #193, #43 ) ;
#62 = ADVANCED_BREP_SHAPE_REPRESENTATION ( '100545', ( #180, #143 ), #68 ) ;
#63 = DIRECTION ( 'NONE',  ( 0.000000000000000000, 0.000000000000000000, 1.000000000000000000 ) ) ;
#64 = PLANE ( 'NONE',  #128 ) ;
#65 = EDGE_LOOP ( 'NONE', ( #196, #3, #172, #75 ) ) ;
#66 = AXIS2_PLACEMENT_3D ( 'NONE', #120, #122, #152 ) ;
#67 = CC_DESIGN_PERSON_AND_ORGANIZATION_ASSIGNMENT ( #38, #11, ( #52 ) ) ;
#68 =( GEOMETRIC_REPRESENTATION_CONTEXT ( 3 ) GLOBAL_UNCERTAINTY_ASSIGNED_CONTEXT ( ( #103 ) ) GLOBAL_UNIT_ASSIGNED_CONTEXT ( ( #19, #188, #41 ) ) REPRESENTATION_CONTEXT ( 'NONE', 'WORKASPACE' ) );
#69 = PERSON_AND_ORGANIZATION_ROLE ( 'creator' ) ;
#70 = APPROVAL_DATE_TIME ( #133, #34 ) ;
#71 = COORDINATED_UNIVERSAL_TIME_OFFSET ( 8, 0, .AHEAD. ) ;
#72 = ADVANCED_FACE ( 'NONE', ( #121 ), #171, .T. ) ;
#73 = VERTEX_POINT ( 'NONE', #77 ) ;
#74 = APPLICATION_PROTOCOL_DEFINITION ( 'international standard', 'config_control_design', 1994, #177 ) ;
#75 = ORIENTED_EDGE ( 'NONE', *, *, #117, .F. ) ;
#76 = DIRECTION ( 'NONE',  ( 0.000000000000000000, -1.000000000000000000, 0.000000000000000000 ) ) ;
#77 = CARTESIAN_POINT ( 'NONE',  ( 0.000000000000000000, 2.000000000000055511, 12.50000000000154543 ) ) ;
#78 = AXIS2_PLACEMENT_3D ( 'NONE', #104, #170, #157 ) ;
#79 = CYLINDRICAL_SURFACE ( 'NONE', #35, 12.50000000000000000 ) ;
#80 = CC_DESIGN_APPROVAL ( #82, ( #182 ) ) ;
#81 = CIRCLE ( 'NONE', #94, 826.8800000000001091 ) ;
#82 = APPROVAL ( #184, 'Î´Ö¸¶¨' ) ;
#83 = PRODUCT_DEFINITION_SHAPE ( 'NONE', 'NONE',  #182 ) ;
#84 = CIRCLE ( 'NONE', #156, 12.50000000000000000 ) ;
#85 = EDGE_CURVE ( 'NONE', #149, #108, #176, .T. ) ;
#86 = APPROVAL_ROLE ( '' ) ;
#87 = ORGANIZATION ( 'Î´Ö¸¶¨', 'Î´Ö¸¶¨', '' ) ;
#88 = DATE_TIME_ROLE ( 'classification_date' ) ;
#89 = DIRECTION ( 'NONE',  ( 0.000000000000000000, 0.000000000000000000, 1.000000000000000000 ) ) ;
#90 = ORIENTED_EDGE ( 'NONE', *, *, #51, .F. ) ;
#91 = LINE ( 'NONE', #5, #166 ) ;
#92 = LOCAL_TIME ( 17, 48, 15.00000000000000000, #130 ) ;
#93 = ORIENTED_EDGE ( 'NONE', *, *, #51, .T. ) ;
#94 = AXIS2_PLACEMENT_3D ( 'NONE', #191, #59, #125 ) ;
#95 = EDGE_CURVE ( 'NONE', #73, #108, #84, .T. ) ;
#96 = APPROVAL_PERSON_ORGANIZATION ( #167, #34, #10 ) ;
#97 = LOCAL_TIME ( 17, 48, 15.00000000000000000, #147 ) ;
#98 = APPROVAL_DATE_TIME ( #36, #195 ) ;
#99 = ORIENTED_EDGE ( 'NONE', *, *, #117, .T. ) ;
#100 = APPROVAL_PERSON_ORGANIZATION ( #165, #82, #23 ) ;
#101 = PERSON_AND_ORGANIZATION ( #132, #87 ) ;
#102 = CALENDAR_DATE ( 2024, 8, 5 ) ;
#103 = UNCERTAINTY_MEASURE_WITH_UNIT (LENGTH_MEASURE( 1.000000000000000082E-05 ), #19, 'distance_accuracy_value', 'NONE');
#104 = CARTESIAN_POINT ( 'NONE',  ( 0.000000000000000000, -824.7859993724237029, 0.03221584471926625809 ) ) ;
#105 = DIRECTION ( 'NONE',  ( -0.000000000000000000, 1.000000000000000000, -0.000000000000000000 ) ) ;
#106 = EDGE_LOOP ( 'NONE', ( #20, #99, #93 ) ) ;
#107 = CARTESIAN_POINT ( 'NONE',  ( 0.000000000000000000, 1.999999999999998224, 0.000000000000000000 ) ) ;
#108 = VERTEX_POINT ( 'NONE', #136 ) ;
#109 = ORIENTED_EDGE ( 'NONE', *, *, #14, .F. ) ;
#110 = ADVANCED_FACE ( 'NONE', ( #155 ), #48, .T. ) ;
#111 = AXIS2_PLACEMENT_3D ( 'NONE', #124, #105, #190 ) ;
#112 = CC_DESIGN_SECURITY_CLASSIFICATION ( #52, ( #17 ) ) ;
#113 = EDGE_CURVE ( 'NONE', #53, #149, #144, .T. ) ;
#114 = COORDINATED_UNIVERSAL_TIME_OFFSET ( 8, 0, .AHEAD. ) ;
#115 = CIRCLE ( 'NONE', #194, 12.50000000000000000 ) ;
#116 = CALENDAR_DATE ( 2024, 8, 5 ) ;
#117 = EDGE_CURVE ( 'NONE', #108, #73, #162, .T. ) ;
#118 = PERSON_AND_ORGANIZATION_ROLE ( 'design_owner' ) ;
#119 = PERSON_AND_ORGANIZATION ( #132, #87 ) ;
#120 = CARTESIAN_POINT ( 'NONE',  ( 0.000000000000000000, -824.7859993724237029, 0.000000000000000000 ) ) ;
#121 = FACE_OUTER_BOUND ( 'NONE', #106, .T. ) ;
#122 = DIRECTION ( 'NONE',  ( -0.000000000000000000, 1.000000000000000000, -0.000000000000000000 ) ) ;
#123 = CARTESIAN_POINT ( 'NONE',  ( 0.000000000000000000, 2.093999999999999861, 0.000000000000000000 ) ) ;
#124 = CARTESIAN_POINT ( 'NONE',  ( 0.000000000000000000, -1.734723475976807094E-15, 0.000000000000000000 ) ) ;
#125 = DIRECTION ( 'NONE',  ( 1.224646799147353207E-16, 0.000000000000000000, -1.000000000000000000 ) ) ;
#126 = CARTESIAN_POINT ( 'NONE',  ( 1.530808498934191521E-15, -1.734723475976807094E-15, -12.50000000000000000 ) ) ;
#127 = LOCAL_TIME ( 17, 48, 15.00000000000000000, #54 ) ;
#128 = AXIS2_PLACEMENT_3D ( 'NONE', #16, #76, #138 ) ;
#129 = EDGE_LOOP ( 'NONE', ( #189, #42, #90 ) ) ;
#130 = COORDINATED_UNIVERSAL_TIME_OFFSET ( 8, 0, .AHEAD. ) ;
#131 = SHAPE_DEFINITION_REPRESENTATION ( #83, #62 ) ;
#132 = PERSON ( 'Î´Ö¸¶¨', 'Î´Ö¸¶¨', 'Î´Ö¸¶¨', ('Î´Ö¸¶¨'), ('Î´Ö¸¶¨'), ('Î´Ö¸¶¨') ) ;
#133 = DATE_AND_TIME ( #186, #92 ) ;
#134 = APPLICATION_PROTOCOL_DEFINITION ( 'international standard', 'config_control_design', 1994, #50 ) ;
#135 = DIRECTION ( 'NONE',  ( -0.000000000000000000, 1.000000000000000000, -0.000000000000000000 ) ) ;
#136 = CARTESIAN_POINT ( 'NONE',  ( 1.530808498934380651E-15, 2.000000000000055511, -12.50000000000154543 ) ) ;
#137 = EDGE_LOOP ( 'NONE', ( #15, #26, #151, #109 ) ) ;
#138 = DIRECTION ( 'NONE',  ( 0.000000000000000000, -0.000000000000000000, -1.000000000000000000 ) ) ;
#139 = CLOSED_SHELL ( 'NONE', ( #31, #110, #72, #159, #55 ) ) ;
#140 = ORIENTED_EDGE ( 'NONE', *, *, #113, .F. ) ;
#141 = CC_DESIGN_DATE_AND_TIME_ASSIGNMENT ( #181, #37, ( #182 ) ) ;
#142 = DIRECTION ( 'NONE',  ( 0.000000000000000000, 0.000000000000000000, 1.000000000000000000 ) ) ;
#143 = AXIS2_PLACEMENT_3D ( 'NONE', #4, #89, #150 ) ;
#144 = CIRCLE ( 'NONE', #111, 12.50000000000000000 ) ;
#145 = EDGE_CURVE ( 'NONE', #149, #53, #115, .T. ) ;
#146 = CALENDAR_DATE ( 2024, 8, 5 ) ;
#147 = COORDINATED_UNIVERSAL_TIME_OFFSET ( 8, 0, .AHEAD. ) ;
#148 = PERSON_AND_ORGANIZATION ( #132, #87 ) ;
#149 = VERTEX_POINT ( 'NONE', #126 ) ;
#150 = DIRECTION ( 'NONE',  ( 1.000000000000000000, 0.000000000000000000, 0.000000000000000000 ) ) ;
#151 = ORIENTED_EDGE ( 'NONE', *, *, #95, .F. ) ;
#152 = DIRECTION ( 'NONE',  ( 0.000000000000000000, 0.000000000000000000, 1.000000000000000000 ) ) ;
#153 = LOCAL_TIME ( 17, 48, 15.00000000000000000, #114 ) ;
#154 = CARTESIAN_POINT ( 'NONE',  ( 0.000000000000000000, 2.093999999999999861, 0.000000000000000000 ) ) ;
#155 = FACE_OUTER_BOUND ( 'NONE', #129, .T. ) ;
#156 = AXIS2_PLACEMENT_3D ( 'NONE', #107, #32, #158 ) ;
#157 = DIRECTION ( 'NONE',  ( 0.000000000000000000, 0.000000000000000000, 1.000000000000000000 ) ) ;
#158 = DIRECTION ( 'NONE',  ( 0.000000000000000000, 0.000000000000000000, 1.000000000000000000 ) ) ;
#159 = ADVANCED_FACE ( 'NONE', ( #173 ), #64, .T. ) ;
#160 = PRODUCT_RELATED_PRODUCT_CATEGORY ( 'detail', '', ( #8 ) ) ;
#161 = CC_DESIGN_APPROVAL ( #34, ( #17 ) ) ;
#162 = CIRCLE ( 'NONE', #61, 12.50000000000000000 ) ;
#163 = SECURITY_CLASSIFICATION_LEVEL ( 'unclassified' ) ;
#164 = MECHANICAL_CONTEXT ( 'NONE', #177, 'mechanical' ) ;
#165 = PERSON_AND_ORGANIZATION ( #132, #87 ) ;
#166 = VECTOR ( 'NONE', #135, 1000.000000000000000 ) ;
#167 = PERSON_AND_ORGANIZATION ( #132, #87 ) ;
#168 = EDGE_LOOP ( 'NONE', ( #140, #27 ) ) ;
#169 = CC_DESIGN_PERSON_AND_ORGANIZATION_ASSIGNMENT ( #12, #198, ( #17 ) ) ;
#170 = DIRECTION ( 'NONE',  ( -1.000000000000000000, 0.000000000000000000, 0.000000000000000000 ) ) ;
#171 = TOROIDAL_SURFACE ( 'NONE', #200, 0.03221584471926625809, 826.8800000000001091 ) ;
#172 = ORIENTED_EDGE ( 'NONE', *, *, #14, .T. ) ;
#173 = FACE_OUTER_BOUND ( 'NONE', #168, .T. ) ;
#174 = DIRECTION ( 'NONE',  ( -0.000000000000000000, 1.000000000000000000, -0.000000000000000000 ) ) ;
#175 = DIRECTION ( 'NONE',  ( -0.000000000000000000, 1.000000000000000000, -0.000000000000000000 ) ) ;
#176 = LINE ( 'NONE', #60, #33 ) ;
#177 = APPLICATION_CONTEXT ( 'configuration controlled 3d designs of mechanical parts and assemblies' ) ;
#178 = AXIS2_PLACEMENT_3D ( 'NONE', #154, #18, #63 ) ;
#179 = APPROVAL_STATUS ( 'not_yet_approved' ) ;
#180 = MANIFOLD_SOLID_BREP ( 'Ðý×ª1', #139 ) ;
#181 = DATE_AND_TIME ( #39, #7 ) ;
#182 = PRODUCT_DEFINITION ( 'Î´Öª', '', #17, #187 ) ;
#183 = CC_DESIGN_APPROVAL ( #195, ( #52 ) ) ;
#184 = APPROVAL_STATUS ( 'not_yet_approved' ) ;
#185 = CIRCLE ( 'NONE', #78, 826.8800000000001091 ) ;
#186 = CALENDAR_DATE ( 2024, 8, 5 ) ;
#187 = DESIGN_CONTEXT ( 'detailed design', #50, 'design' ) ;
#188 =( NAMED_UNIT ( * ) PLANE_ANGLE_UNIT ( ) SI_UNIT ( $, .RADIAN. ) );
#189 = ORIENTED_EDGE ( 'NONE', *, *, #95, .T. ) ;
#190 = DIRECTION ( 'NONE',  ( 0.000000000000000000, 0.000000000000000000, 1.000000000000000000 ) ) ;
#191 = CARTESIAN_POINT ( 'NONE',  ( 3.945303111727758400E-18, -824.7859993724237029, -0.03221584471926625809 ) ) ;
#192 = FACE_OUTER_BOUND ( 'NONE', #65, .T. ) ;
#193 = DIRECTION ( 'NONE',  ( -0.000000000000000000, 1.000000000000000000, -0.000000000000000000 ) ) ;
#194 = AXIS2_PLACEMENT_3D ( 'NONE', #29, #2, #46 ) ;
#195 = APPROVAL ( #179, 'Î´Ö¸¶¨' ) ;
#196 = ORIENTED_EDGE ( 'NONE', *, *, #85, .F. ) ;
#197 = CC_DESIGN_DATE_AND_TIME_ASSIGNMENT ( #199, #88, ( #52 ) ) ;
#198 = PERSON_AND_ORGANIZATION_ROLE ( 'design_supplier' ) ;
#199 = DATE_AND_TIME ( #102, #153 ) ;
#200 = AXIS2_PLACEMENT_3D ( 'NONE', #45, #175, #30 ) ;
#201 = APPROVAL_STATUS ( 'not_yet_approved' ) ;
ENDSEC;
END-ISO-10303-21;
