ISO-10303-21;
HEADER;
FILE_DESCRIPTION (( 'STEP AP214' ),
    '1' );
FILE_NAME ('100520.STEP',
    '2019-06-13T02:18:30',
    ( '' ),
    ( '' ),
    'SwSTEP 2.0',
    'SolidWorks 2016',
    '' );
FILE_SCHEMA (( 'AUTOMOTIVE_DESIGN' ));
ENDSEC;

DATA;
#1 = AXIS2_PLACEMENT_3D ( 'NONE', #121, #89, #125 ) ;
#2 = DIRECTION ( 'NONE',  ( 0.0000000000000000000, 0.0000000000000000000, 1.000000000000000000 ) ) ;
#3 = VERTEX_POINT ( 'NONE', #149 ) ;
#4 = CARTESIAN_POINT ( 'NONE',  ( 115.7645554762012000, 65.23355492641219700, 0.0000000000000000000 ) ) ;
#5 =( NAMED_UNIT ( * ) SI_UNIT ( $, .STERADIAN. ) SOLID_ANGLE_UNIT ( ) );
#6 = CYLINDRICAL_SURFACE ( 'NONE', #122, 12.70000000000000300 ) ;
#7 = CARTESIAN_POINT ( 'NONE',  ( 119.6645554762012700, 77.93355492641309500, 0.0000000000000000000 ) ) ;
#8 = AXIS2_PLACEMENT_3D ( 'NONE', #153, #43, #137 ) ;
#9 = CARTESIAN_POINT ( 'NONE',  ( 119.6645554762012200, 65.23355492641219700, 0.0000000000000000000 ) ) ;
#10 =( NAMED_UNIT ( * ) SI_UNIT ( $, .STERADIAN. ) SOLID_ANGLE_UNIT ( ) );
#11 = MECHANICAL_DESIGN_GEOMETRIC_PRESENTATION_REPRESENTATION (  '', ( #176 ), #143 ) ;
#12 = LINE ( 'NONE', #161, #84 ) ;
#13 = APPLICATION_CONTEXT ( 'automotive_design' ) ;
#14 = ADVANCED_FACE ( 'NONE', ( #100 ), #173, .T. ) ;
#15 = UNCERTAINTY_MEASURE_WITH_UNIT (LENGTH_MEASURE( 1.000000000000000100E-005 ), #181, 'distance_accuracy_value', 'NONE');
#16 = ORIENTED_EDGE ( 'NONE', *, *, #47, .F. ) ;
#17 = PRODUCT_DEFINITION_CONTEXT ( 'detailed design', #13, 'design' ) ;
#18 = ORIENTED_EDGE ( 'NONE', *, *, #136, .T. ) ;
#19 = PRODUCT_DEFINITION_SHAPE ( 'NONE', 'NONE',  #107 ) ;
#20 = FACE_OUTER_BOUND ( 'NONE', #169, .T. ) ;
#21 = PLANE ( 'NONE',  #146 ) ;
#22 =( GEOMETRIC_REPRESENTATION_CONTEXT ( 3 ) GLOBAL_UNCERTAINTY_ASSIGNED_CONTEXT ( ( #15 ) ) GLOBAL_UNIT_ASSIGNED_CONTEXT ( ( #181, #54, #90 ) ) REPRESENTATION_CONTEXT ( 'NONE', 'WORKASPACE' ) );
#23 = DIRECTION ( 'NONE',  ( -0.0000000000000000000, 0.0000000000000000000, -1.000000000000000000 ) ) ;
#24 = ORIENTED_EDGE ( 'NONE', *, *, #65, .T. ) ;
#25 = DIRECTION ( 'NONE',  ( 0.0000000000000000000, 0.0000000000000000000, 1.000000000000000000 ) ) ;
#26 = EDGE_CURVE ( 'NONE', #108, #3, #12, .T. ) ;
#27 = FILL_AREA_STYLE ('',( #44 ) ) ;
#28 = ORIENTED_EDGE ( 'NONE', *, *, #120, .F. ) ;
#29 = APPLICATION_PROTOCOL_DEFINITION ( 'draft international standard', 'automotive_design', 1998, #13 ) ;
#30 = EDGE_CURVE ( 'NONE', #88, #184, #59, .T. ) ;
#31 = VERTEX_POINT ( 'NONE', #129 ) ;
#32 = PRESENTATION_LAYER_ASSIGNMENT (  '', '', ( #167 ) ) ;
#33 = ORIENTED_EDGE ( 'NONE', *, *, #65, .F. ) ;
#34 = ORIENTED_EDGE ( 'NONE', *, *, #157, .F. ) ;
#35 = DIRECTION ( 'NONE',  ( -1.000000000000000000, -0.0000000000000000000, -0.0000000000000000000 ) ) ;
#36 = DIRECTION ( 'NONE',  ( -0.0000000000000000000, 0.0000000000000000000, 1.000000000000000000 ) ) ;
#37 = CARTESIAN_POINT ( 'NONE',  ( 119.6645554762012200, 65.23355492641219700, -12.70000000000000300 ) ) ;
#38 = AXIS2_PLACEMENT_3D ( 'NONE', #117, #35, #2 ) ;
#39 =( NAMED_UNIT ( * ) PLANE_ANGLE_UNIT ( ) SI_UNIT ( $, .RADIAN. ) );
#40 = DIRECTION ( 'NONE',  ( 0.0000000000000000000, 1.224646799147353200E-016, -1.000000000000000000 ) ) ;
#41 = MECHANICAL_DESIGN_GEOMETRIC_PRESENTATION_REPRESENTATION (  '', ( #167 ), #48 ) ;
#42 = SURFACE_SIDE_STYLE ('',( #116 ) ) ;
#43 = DIRECTION ( 'NONE',  ( 0.0000000000000000000, 0.0000000000000000000, 1.000000000000000000 ) ) ;
#44 = FILL_AREA_STYLE_COLOUR ( '', #109 ) ;
#45 = PRODUCT_DEFINITION_FORMATION_WITH_SPECIFIED_SOURCE ( 'ÈÎºÎ', '', #110, .NOT_KNOWN. ) ;
#46 = ADVANCED_FACE ( 'NONE', ( #78 ), #134, .T. ) ;
#47 = EDGE_CURVE ( 'NONE', #3, #175, #70, .T. ) ;
#48 =( GEOMETRIC_REPRESENTATION_CONTEXT ( 3 ) GLOBAL_UNCERTAINTY_ASSIGNED_CONTEXT ( ( #103 ) ) GLOBAL_UNIT_ASSIGNED_CONTEXT ( ( #182, #92, #10 ) ) REPRESENTATION_CONTEXT ( 'NONE', 'WORKASPACE' ) );
#49 = ORIENTED_EDGE ( 'NONE', *, *, #151, .F. ) ;
#50 = DIRECTION ( 'NONE',  ( 0.0000000000000000000, 0.0000000000000000000, 1.000000000000000000 ) ) ;
#51 = EDGE_LOOP ( 'NONE', ( #94, #56, #34, #112 ) ) ;
#52 = DIRECTION ( 'NONE',  ( 1.000000000000000000, 0.0000000000000000000, 0.0000000000000000000 ) ) ;
#53 = ORIENTED_EDGE ( 'NONE', *, *, #157, .T. ) ;
#54 =( NAMED_UNIT ( * ) PLANE_ANGLE_UNIT ( ) SI_UNIT ( $, .RADIAN. ) );
#55 = DIRECTION ( 'NONE',  ( -1.000000000000000000, -0.0000000000000000000, -0.0000000000000000000 ) ) ;
#56 = ORIENTED_EDGE ( 'NONE', *, *, #151, .T. ) ;
#57 = CIRCLE ( 'NONE', #172, 12.70000000000000300 ) ;
#58 = CYLINDRICAL_SURFACE ( 'NONE', #83, 12.70000000000000300 ) ;
#59 = CIRCLE ( 'NONE', #170, 806.5000000000457000 ) ;
#60 = CARTESIAN_POINT ( 'NONE',  ( -686.7354445238444200, 65.23355492641039200, 0.0000000000000000000 ) ) ;
#61 = CARTESIAN_POINT ( 'NONE',  ( 110.1653732284884500, 65.23355492641219700, 12.70000000000000300 ) ) ;
#62 = CIRCLE ( 'NONE', #76, 806.5000000000457000 ) ;
#63 = DIRECTION ( 'NONE',  ( -1.000000000000000000, -0.0000000000000000000, -0.0000000000000000000 ) ) ;
#64 = CARTESIAN_POINT ( 'NONE',  ( -686.7354445238444200, 65.23355492641039200, 0.0000000000000000000 ) ) ;
#65 = EDGE_CURVE ( 'NONE', #31, #72, #131, .T. ) ;
#66 = SURFACE_STYLE_USAGE ( .BOTH. , #123 ) ;
#67 = DIRECTION ( 'NONE',  ( 0.0000000000000000000, 0.0000000000000000000, 1.000000000000000000 ) ) ;
#68 = DIRECTION ( 'NONE',  ( 0.0000000000000000000, 1.000000000000000000, 1.224646799147353200E-016 ) ) ;
#69 = EDGE_LOOP ( 'NONE', ( #127, #158, #115, #28, #160 ) ) ;
#70 = CIRCLE ( 'NONE', #96, 12.70000000000000300 ) ;
#71 = AXIS2_PLACEMENT_3D ( 'NONE', #163, #23, #130 ) ;
#72 = VERTEX_POINT ( 'NONE', #87 ) ;
#73 = CARTESIAN_POINT ( 'NONE',  ( 119.7645554762013500, 65.23355492641044900, 0.0000000000000000000 ) ) ;
#74 = DIRECTION ( 'NONE',  ( -0.0000000000000000000, 0.0000000000000000000, -1.000000000000000000 ) ) ;
#75 = CARTESIAN_POINT ( 'NONE',  ( 110.1653732284884500, 65.23355492641219700, 0.0000000000000000000 ) ) ;
#76 = AXIS2_PLACEMENT_3D ( 'NONE', #152, #40, #68 ) ;
#77 = SURFACE_STYLE_USAGE ( .BOTH. , #42 ) ;
#78 = FACE_OUTER_BOUND ( 'NONE', #51, .T. ) ;
#79 = CARTESIAN_POINT ( 'NONE',  ( 110.1653732284884500, 65.23355492641219700, 0.0000000000000000000 ) ) ;
#80 = ADVANCED_FACE ( 'NONE', ( #91 ), #21, .F. ) ;
#81 = SURFACE_STYLE_FILL_AREA ( #102 ) ;
#82 = SHAPE_DEFINITION_REPRESENTATION ( #19, #138 ) ;
#83 = AXIS2_PLACEMENT_3D ( 'NONE', #79, #119, #67 ) ;
#84 = VECTOR ( 'NONE', #63, 1000.000000000000000 ) ;
#85 = AXIS2_PLACEMENT_3D ( 'NONE', #9, #164, #25 ) ;
#86 = ORIENTED_EDGE ( 'NONE', *, *, #47, .T. ) ;
#87 = CARTESIAN_POINT ( 'NONE',  ( 119.6645554762012200, 65.23355492641219700, 12.70000000000000300 ) ) ;
#88 = VERTEX_POINT ( 'NONE', #73 ) ;
#89 = DIRECTION ( 'NONE',  ( -1.000000000000000000, -0.0000000000000000000, -0.0000000000000000000 ) ) ;
#90 =( NAMED_UNIT ( * ) SI_UNIT ( $, .STERADIAN. ) SOLID_ANGLE_UNIT ( ) );
#91 = FACE_OUTER_BOUND ( 'NONE', #177, .T. ) ;
#92 =( NAMED_UNIT ( * ) PLANE_ANGLE_UNIT ( ) SI_UNIT ( $, .RADIAN. ) );
#93 = APPLICATION_CONTEXT ( 'automotive_design' ) ;
#94 = ORIENTED_EDGE ( 'NONE', *, *, #30, .F. ) ;
#95 = EDGE_LOOP ( 'NONE', ( #49, #124, #142, #33 ) ) ;
#96 = AXIS2_PLACEMENT_3D ( 'NONE', #4, #114, #50 ) ;
#97 = UNCERTAINTY_MEASURE_WITH_UNIT (LENGTH_MEASURE( 1.000000000000000100E-005 ), #133, 'distance_accuracy_value', 'NONE');
#98 = ORIENTED_EDGE ( 'NONE', *, *, #26, .F. ) ;
#99 = EDGE_CURVE ( 'NONE', #184, #108, #57, .T. ) ;
#100 = FACE_OUTER_BOUND ( 'NONE', #95, .T. ) ;
#101 = DIRECTION ( 'NONE',  ( 1.000000000000000000, 0.0000000000000000000, 0.0000000000000000000 ) ) ;
#102 = FILL_AREA_STYLE ('',( #135 ) ) ;
#103 = UNCERTAINTY_MEASURE_WITH_UNIT (LENGTH_MEASURE( 1.000000000000000100E-005 ), #182, 'distance_accuracy_value', 'NONE');
#104 = DIRECTION ( 'NONE',  ( 0.0000000000000000000, 0.0000000000000000000, 1.000000000000000000 ) ) ;
#105 = CARTESIAN_POINT ( 'NONE',  ( 119.6645554762012200, 65.23355492641219700, 0.0000000000000000000 ) ) ;
#106 = DIRECTION ( 'NONE',  ( -1.000000000000000000, -0.0000000000000000000, -0.0000000000000000000 ) ) ;
#107 = PRODUCT_DEFINITION ( 'Î´Öª', '', #45, #17 ) ;
#108 = VERTEX_POINT ( 'NONE', #37 ) ;
#109 = COLOUR_RGB ( '',1.000000000000000000, 1.000000000000000000, 1.000000000000000000 ) ;
#110 = PRODUCT ( '100520', '100520', '', ( #183 ) ) ;
#111 = PRODUCT_RELATED_PRODUCT_CATEGORY ( 'part', '', ( #110 ) ) ;
#112 = ORIENTED_EDGE ( 'NONE', *, *, #99, .F. ) ;
#113 = AXIS2_PLACEMENT_3D ( 'NONE', #105, #106, #156 ) ;
#114 = DIRECTION ( 'NONE',  ( -1.000000000000000000, -0.0000000000000000000, -0.0000000000000000000 ) ) ;
#115 = ORIENTED_EDGE ( 'NONE', *, *, #136, .F. ) ;
#116 = SURFACE_STYLE_FILL_AREA ( #27 ) ;
#117 = CARTESIAN_POINT ( 'NONE',  ( 119.6645554762012200, 65.23355492641219700, 0.0000000000000000000 ) ) ;
#118 = CIRCLE ( 'NONE', #85, 12.70000000000000300 ) ;
#119 = DIRECTION ( 'NONE',  ( -1.000000000000000000, -0.0000000000000000000, -0.0000000000000000000 ) ) ;
#120 = EDGE_CURVE ( 'NONE', #72, #175, #178, .T. ) ;
#121 = CARTESIAN_POINT ( 'NONE',  ( 115.7645554762012000, 65.23355492641219700, 0.0000000000000000000 ) ) ;
#122 = AXIS2_PLACEMENT_3D ( 'NONE', #75, #166, #179 ) ;
#123 = SURFACE_SIDE_STYLE ('',( #81 ) ) ;
#124 = ORIENTED_EDGE ( 'NONE', *, *, #30, .T. ) ;
#125 = DIRECTION ( 'NONE',  ( 0.0000000000000000000, 0.0000000000000000000, 1.000000000000000000 ) ) ;
#126 = COLOUR_RGB ( '',1.000000000000000000, 1.000000000000000000, 1.000000000000000000 ) ;
#127 = ORIENTED_EDGE ( 'NONE', *, *, #99, .T. ) ;
#128 = CARTESIAN_POINT ( 'NONE',  ( 115.7645554762012000, 65.23355492641219700, 0.0000000000000000000 ) ) ;
#129 = CARTESIAN_POINT ( 'NONE',  ( 119.6645554762012700, 52.53355492640948700, -1.555301434917248700E-015 ) ) ;
#130 = DIRECTION ( 'NONE',  ( 0.0000000000000000000, 1.000000000000000000, 0.0000000000000000000 ) ) ;
#131 = CIRCLE ( 'NONE', #38, 12.70000000000000300 ) ;
#132 = DIRECTION ( 'NONE',  ( -1.000000000000000000, -0.0000000000000000000, -0.0000000000000000000 ) ) ;
#133 =( LENGTH_UNIT ( ) NAMED_UNIT ( * ) SI_UNIT ( .MILLI., .METRE. ) );
#134 = SPHERICAL_SURFACE ( 'NONE', #71, 806.5000000000457000 ) ;
#135 = FILL_AREA_STYLE_COLOUR ( '', #126 ) ;
#136 = EDGE_CURVE ( 'NONE', #175, #3, #144, .T. ) ;
#137 = DIRECTION ( 'NONE',  ( 1.000000000000000000, 0.0000000000000000000, 0.0000000000000000000 ) ) ;
#138 = ADVANCED_BREP_SHAPE_REPRESENTATION ( '100520', ( #162, #8 ), #22 ) ;
#139 = CARTESIAN_POINT ( 'NONE',  ( 119.6645554762012200, 65.23355492641219700, 0.0000000000000000000 ) ) ;
#140 = ADVANCED_FACE ( 'NONE', ( #20 ), #58, .T. ) ;
#141 = EDGE_CURVE ( 'NONE', #72, #184, #165, .T. ) ;
#142 = ORIENTED_EDGE ( 'NONE', *, *, #141, .F. ) ;
#143 =( GEOMETRIC_REPRESENTATION_CONTEXT ( 3 ) GLOBAL_UNCERTAINTY_ASSIGNED_CONTEXT ( ( #97 ) ) GLOBAL_UNIT_ASSIGNED_CONTEXT ( ( #133, #39, #5 ) ) REPRESENTATION_CONTEXT ( 'NONE', 'WORKASPACE' ) );
#144 = CIRCLE ( 'NONE', #1, 12.70000000000000300 ) ;
#145 = DIRECTION ( 'NONE',  ( 0.0000000000000000000, 1.000000000000000000, 0.0000000000000000000 ) ) ;
#146 = AXIS2_PLACEMENT_3D ( 'NONE', #128, #52, #147 ) ;
#147 = DIRECTION ( 'NONE',  ( 0.0000000000000000000, 0.0000000000000000000, -1.000000000000000000 ) ) ;
#148 = CLOSED_SHELL ( 'NONE', ( #168, #46, #14, #140, #80 ) ) ;
#149 = CARTESIAN_POINT ( 'NONE',  ( 115.7645554762012000, 65.23355492641219700, -12.70000000000000300 ) ) ;
#150 = CARTESIAN_POINT ( 'NONE',  ( 115.7645554762012000, 65.23355492641219700, 12.70000000000000300 ) ) ;
#151 = EDGE_CURVE ( 'NONE', #88, #31, #62, .T. ) ;
#152 = CARTESIAN_POINT ( 'NONE',  ( -686.7354445238444200, 65.23355492641039200, 0.0000000000000000000 ) ) ;
#153 = CARTESIAN_POINT ( 'NONE',  ( 0.0000000000000000000, 0.0000000000000000000, 0.0000000000000000000 ) ) ;
#154 = APPLICATION_PROTOCOL_DEFINITION ( 'draft international standard', 'automotive_design', 1998, #93 ) ;
#155 = ORIENTED_EDGE ( 'NONE', *, *, #120, .T. ) ;
#156 = DIRECTION ( 'NONE',  ( 0.0000000000000000000, 0.0000000000000000000, 1.000000000000000000 ) ) ;
#157 = EDGE_CURVE ( 'NONE', #108, #31, #118, .T. ) ;
#158 = ORIENTED_EDGE ( 'NONE', *, *, #26, .T. ) ;
#159 = PRESENTATION_STYLE_ASSIGNMENT (( #66 ) ) ;
#160 = ORIENTED_EDGE ( 'NONE', *, *, #141, .T. ) ;
#161 = CARTESIAN_POINT ( 'NONE',  ( 110.1653732284884500, 65.23355492641219700, -12.70000000000000300 ) ) ;
#162 = MANIFOLD_SOLID_BREP ( 'Ðý×ª1', #148 ) ;
#163 = CARTESIAN_POINT ( 'NONE',  ( -686.7354445238444200, 65.23355492641039200, 0.0000000000000000000 ) ) ;
#164 = DIRECTION ( 'NONE',  ( -1.000000000000000000, -0.0000000000000000000, -0.0000000000000000000 ) ) ;
#165 = CIRCLE ( 'NONE', #113, 12.70000000000000300 ) ;
#166 = DIRECTION ( 'NONE',  ( -1.000000000000000000, -0.0000000000000000000, -0.0000000000000000000 ) ) ;
#167 = STYLED_ITEM ( 'NONE', ( #174 ), #138 ) ;
#168 = ADVANCED_FACE ( 'NONE', ( #186 ), #6, .T. ) ;
#169 = EDGE_LOOP ( 'NONE', ( #98, #53, #24, #155, #16 ) ) ;
#170 = AXIS2_PLACEMENT_3D ( 'NONE', #64, #36, #101 ) ;
#171 = VECTOR ( 'NONE', #55, 1000.000000000000000 ) ;
#172 = AXIS2_PLACEMENT_3D ( 'NONE', #139, #132, #104 ) ;
#173 = SPHERICAL_SURFACE ( 'NONE', #180, 806.5000000000457000 ) ;
#174 = PRESENTATION_STYLE_ASSIGNMENT (( #77 ) ) ;
#175 = VERTEX_POINT ( 'NONE', #150 ) ;
#176 = STYLED_ITEM ( 'NONE', ( #159 ), #162 ) ;
#177 = EDGE_LOOP ( 'NONE', ( #18, #86 ) ) ;
#178 = LINE ( 'NONE', #61, #171 ) ;
#179 = DIRECTION ( 'NONE',  ( 0.0000000000000000000, 0.0000000000000000000, 1.000000000000000000 ) ) ;
#180 = AXIS2_PLACEMENT_3D ( 'NONE', #60, #74, #145 ) ;
#181 =( LENGTH_UNIT ( ) NAMED_UNIT ( * ) SI_UNIT ( .MILLI., .METRE. ) );
#182 =( LENGTH_UNIT ( ) NAMED_UNIT ( * ) SI_UNIT ( .MILLI., .METRE. ) );
#183 = PRODUCT_CONTEXT ( 'NONE', #93, 'mechanical' ) ;
#184 = VERTEX_POINT ( 'NONE', #7 ) ;
#185 = PRESENTATION_LAYER_ASSIGNMENT (  '', '', ( #176 ) ) ;
#186 = FACE_OUTER_BOUND ( 'NONE', #69, .T. ) ;
ENDSEC;
END-ISO-10303-21;
