ISO-10303-21;
HEADER;
FILE_DESCRIPTION (( 'STEP AP214' ),
    '1' );
FILE_NAME ('100444.STEP',
    '2019-06-10T01:21:38',
    ( '' ),
    ( '' ),
    'SwSTEP 2.0',
    'SolidWorks 2016',
    '' );
FILE_SCHEMA (( 'AUTOMOTIVE_DESIGN' ));
ENDSEC;

DATA;
#1 = EDGE_LOOP ( 'NONE', ( #108, #44, #72, #12 ) ) ;
#2 = EDGE_CURVE ( 'NONE', #161, #122, #53, .T. ) ;
#3 = CARTESIAN_POINT ( 'NONE',  ( 404.9700888023361900, 28.29082878366379100, 0.0000000000000000000 ) ) ;
#4 = ORIENTED_EDGE ( 'NONE', *, *, #35, .F. ) ;
#5 =( NAMED_UNIT ( * ) PLANE_ANGLE_UNIT ( ) SI_UNIT ( $, .RADIAN. ) );
#6 = DIRECTION ( 'NONE',  ( -1.000000000000000000, -0.0000000000000000000, -0.0000000000000000000 ) ) ;
#7 = DIRECTION ( 'NONE',  ( 0.0000000000000000000, 0.0000000000000000000, 1.000000000000000000 ) ) ;
#8 = AXIS2_PLACEMENT_3D ( 'NONE', #151, #6, #71 ) ;
#9 =( GEOMETRIC_REPRESENTATION_CONTEXT ( 3 ) GLOBAL_UNCERTAINTY_ASSIGNED_CONTEXT ( ( #75 ) ) GLOBAL_UNIT_ASSIGNED_CONTEXT ( ( #109, #113, #110 ) ) REPRESENTATION_CONTEXT ( 'NONE', 'WORKASPACE' ) );
#10 = PRODUCT_DEFINITION_CONTEXT ( 'detailed design', #128, 'design' ) ;
#11 = VERTEX_POINT ( 'NONE', #173 ) ;
#12 = ORIENTED_EDGE ( 'NONE', *, *, #132, .F. ) ;
#13 = DIRECTION ( 'NONE',  ( 0.0000000000000000000, -1.000000000000000000, 0.0000000000000000000 ) ) ;
#14 = CARTESIAN_POINT ( 'NONE',  ( 409.2705352309076300, 28.29082878366378400, 6.350000000000001400 ) ) ;
#15 = FACE_OUTER_BOUND ( 'NONE', #1, .T. ) ;
#16 = DIRECTION ( 'NONE',  ( 0.0000000000000000000, 0.0000000000000000000, 1.000000000000000000 ) ) ;
#17 = DIRECTION ( 'NONE',  ( 1.000000000000000000, 0.0000000000000000000, 0.0000000000000000000 ) ) ;
#18 = DIRECTION ( 'NONE',  ( 0.0000000000000000000, -1.000000000000000000, 0.0000000000000000000 ) ) ;
#19 = VECTOR ( 'NONE', #103, 1000.000000000000000 ) ;
#20 = STYLED_ITEM ( 'NONE', ( #116 ), #52 ) ;
#21 = ORIENTED_EDGE ( 'NONE', *, *, #47, .T. ) ;
#22 = AXIS2_PLACEMENT_3D ( 'NONE', #157, #182, #64 ) ;
#23 = DIRECTION ( 'NONE',  ( 0.0000000000000000000, 0.0000000000000000000, 1.000000000000000000 ) ) ;
#24 = DIRECTION ( 'NONE',  ( -1.000000000000000000, -0.0000000000000000000, -0.0000000000000000000 ) ) ;
#25 = ORIENTED_EDGE ( 'NONE', *, *, #70, .T. ) ;
#26 = CARTESIAN_POINT ( 'NONE',  ( 410.7705352309076300, 28.29082878366378400, 6.350000000000001400 ) ) ;
#27 = CARTESIAN_POINT ( 'NONE',  ( 409.2705352309076300, 28.29082878366378400, 0.0000000000000000000 ) ) ;
#28 = CARTESIAN_POINT ( 'NONE',  ( 410.7705352309076300, 21.94082878366378300, 0.0000000000000000000 ) ) ;
#29 = CIRCLE ( 'NONE', #172, 6.350000000000001400 ) ;
#30 = FILL_AREA_STYLE ('',( #92 ) ) ;
#31 = DIRECTION ( 'NONE',  ( -1.000000000000000000, -0.0000000000000000000, -0.0000000000000000000 ) ) ;
#32 = ORIENTED_EDGE ( 'NONE', *, *, #47, .F. ) ;
#33 = FACE_OUTER_BOUND ( 'NONE', #142, .T. ) ;
#34 = SPHERICAL_SURFACE ( 'NONE', #186, 8.600446428571427000 ) ;
#35 = EDGE_CURVE ( 'NONE', #122, #161, #29, .T. ) ;
#36 = ADVANCED_FACE ( 'NONE', ( #33 ), #34, .T. ) ;
#37 = AXIS2_PLACEMENT_3D ( 'NONE', #77, #166, #156 ) ;
#38 =( LENGTH_UNIT ( ) NAMED_UNIT ( * ) SI_UNIT ( .MILLI., .METRE. ) );
#39 = FILL_AREA_STYLE_COLOUR ( '', #154 ) ;
#40 = CARTESIAN_POINT ( 'NONE',  ( 407.0100040850531400, 28.29082878366378400, 0.0000000000000000000 ) ) ;
#41 =( NAMED_UNIT ( * ) SI_UNIT ( $, .STERADIAN. ) SOLID_ANGLE_UNIT ( ) );
#42 = CARTESIAN_POINT ( 'NONE',  ( 407.0100040850531400, 28.29082878366378400, 0.0000000000000000000 ) ) ;
#43 = AXIS2_PLACEMENT_3D ( 'NONE', #27, #17, #130 ) ;
#44 = ORIENTED_EDGE ( 'NONE', *, *, #158, .T. ) ;
#45 = DIRECTION ( 'NONE',  ( -1.000000000000000000, -0.0000000000000000000, -0.0000000000000000000 ) ) ;
#46 = CARTESIAN_POINT ( 'NONE',  ( 410.7705352309076300, 34.64082878366379200, 7.776507174585695100E-016 ) ) ;
#47 = EDGE_CURVE ( 'NONE', #78, #122, #69, .T. ) ;
#48 = CYLINDRICAL_SURFACE ( 'NONE', #135, 6.350000000000001400 ) ;
#49 = PRODUCT_DEFINITION_FORMATION_WITH_SPECIFIED_SOURCE ( 'ÈÎºÎ', '', #85, .NOT_KNOWN. ) ;
#50 = ORIENTED_EDGE ( 'NONE', *, *, #2, .T. ) ;
#51 = LINE ( 'NONE', #141, #19 ) ;
#52 = MANIFOLD_SOLID_BREP ( 'Ðý×ª1', #67 ) ;
#53 = CIRCLE ( 'NONE', #149, 6.350000000000001400 ) ;
#54 = PRESENTATION_STYLE_ASSIGNMENT (( #144 ) ) ;
#55 = SURFACE_STYLE_USAGE ( .BOTH. , #105 ) ;
#56 = DIRECTION ( 'NONE',  ( 0.0000000000000000000, 0.0000000000000000000, 1.000000000000000000 ) ) ;
#57 = CIRCLE ( 'NONE', #99, 8.600446428571439500 ) ;
#58 = SURFACE_STYLE_FILL_AREA ( #30 ) ;
#59 = CARTESIAN_POINT ( 'NONE',  ( 413.5705352309076400, 28.29082878366379100, 0.0000000000000000000 ) ) ;
#60 = DIRECTION ( 'NONE',  ( 0.0000000000000000000, 0.0000000000000000000, 1.000000000000000000 ) ) ;
#61 = DIRECTION ( 'NONE',  ( 0.0000000000000000000, 0.0000000000000000000, 1.000000000000000000 ) ) ;
#62 = CARTESIAN_POINT ( 'NONE',  ( 404.9700888023361900, 28.29082878366379100, 0.0000000000000000000 ) ) ;
#63 =( NAMED_UNIT ( * ) SI_UNIT ( $, .STERADIAN. ) SOLID_ANGLE_UNIT ( ) );
#64 = DIRECTION ( 'NONE',  ( 1.000000000000000000, 0.0000000000000000000, 0.0000000000000000000 ) ) ;
#65 = PRESENTATION_LAYER_ASSIGNMENT (  '', '', ( #20 ) ) ;
#66 = ORIENTED_EDGE ( 'NONE', *, *, #94, .T. ) ;
#67 = CLOSED_SHELL ( 'NONE', ( #81, #147, #36, #160, #133 ) ) ;
#68 = EDGE_CURVE ( 'NONE', #78, #150, #102, .T. ) ;
#69 = LINE ( 'NONE', #180, #119 ) ;
#70 = EDGE_CURVE ( 'NONE', #150, #11, #139, .T. ) ;
#71 = DIRECTION ( 'NONE',  ( 0.0000000000000000000, 0.0000000000000000000, 1.000000000000000000 ) ) ;
#72 = ORIENTED_EDGE ( 'NONE', *, *, #68, .F. ) ;
#73 = ORIENTED_EDGE ( 'NONE', *, *, #158, .F. ) ;
#74 = APPLICATION_PROTOCOL_DEFINITION ( 'draft international standard', 'automotive_design', 1998, #128 ) ;
#75 = UNCERTAINTY_MEASURE_WITH_UNIT (LENGTH_MEASURE( 1.000000000000000100E-005 ), #109, 'distance_accuracy_value', 'NONE');
#76 = ORIENTED_EDGE ( 'NONE', *, *, #35, .T. ) ;
#77 = CARTESIAN_POINT ( 'NONE',  ( 404.9700888023361900, 28.29082878366379100, 0.0000000000000000000 ) ) ;
#78 = VERTEX_POINT ( 'NONE', #26 ) ;
#79 = AXIS2_PLACEMENT_3D ( 'NONE', #87, #138, #56 ) ;
#80 = EDGE_LOOP ( 'NONE', ( #76, #50 ) ) ;
#81 = ADVANCED_FACE ( 'NONE', ( #98 ), #48, .T. ) ;
#82 = AXIS2_PLACEMENT_3D ( 'NONE', #140, #121, #16 ) ;
#83 = ORIENTED_EDGE ( 'NONE', *, *, #132, .T. ) ;
#84 = CARTESIAN_POINT ( 'NONE',  ( 410.7705352309076300, 28.29082878366378400, 0.0000000000000000000 ) ) ;
#85 = PRODUCT ( '100444', '100444', '', ( #145 ) ) ;
#86 = EDGE_CURVE ( 'NONE', #11, #136, #93, .T. ) ;
#87 = CARTESIAN_POINT ( 'NONE',  ( 410.7705352309076300, 28.29082878366378400, 0.0000000000000000000 ) ) ;
#88 = FACE_OUTER_BOUND ( 'NONE', #80, .T. ) ;
#89 = APPLICATION_CONTEXT ( 'automotive_design' ) ;
#90 = SURFACE_SIDE_STYLE ('',( #58 ) ) ;
#91 =( NAMED_UNIT ( * ) PLANE_ANGLE_UNIT ( ) SI_UNIT ( $, .RADIAN. ) );
#92 = FILL_AREA_STYLE_COLOUR ( '', #96 ) ;
#93 = CIRCLE ( 'NONE', #79, 6.350000000000001400 ) ;
#94 = EDGE_CURVE ( 'NONE', #114, #136, #57, .T. ) ;
#95 =( GEOMETRIC_REPRESENTATION_CONTEXT ( 3 ) GLOBAL_UNCERTAINTY_ASSIGNED_CONTEXT ( ( #107 ) ) GLOBAL_UNIT_ASSIGNED_CONTEXT ( ( #143, #91, #63 ) ) REPRESENTATION_CONTEXT ( 'NONE', 'WORKASPACE' ) );
#96 = COLOUR_RGB ( '',1.000000000000000000, 1.000000000000000000, 1.000000000000000000 ) ;
#97 = EDGE_CURVE ( 'NONE', #11, #161, #51, .T. ) ;
#98 = FACE_OUTER_BOUND ( 'NONE', #148, .T. ) ;
#99 = AXIS2_PLACEMENT_3D ( 'NONE', #3, #101, #123 ) ;
#100 = CARTESIAN_POINT ( 'NONE',  ( 404.9700888023361900, 28.29082878366379100, 0.0000000000000000000 ) ) ;
#101 = DIRECTION ( 'NONE',  ( 0.0000000000000000000, 0.0000000000000000000, -1.000000000000000000 ) ) ;
#102 = CIRCLE ( 'NONE', #82, 6.350000000000001400 ) ;
#103 = DIRECTION ( 'NONE',  ( -1.000000000000000000, -0.0000000000000000000, -0.0000000000000000000 ) ) ;
#104 = PLANE ( 'NONE',  #43 ) ;
#105 = SURFACE_SIDE_STYLE ('',( #146 ) ) ;
#106 = DIRECTION ( 'NONE',  ( 0.0000000000000000000, 0.0000000000000000000, 1.000000000000000000 ) ) ;
#107 = UNCERTAINTY_MEASURE_WITH_UNIT (LENGTH_MEASURE( 1.000000000000000100E-005 ), #143, 'distance_accuracy_value', 'NONE');
#108 = ORIENTED_EDGE ( 'NONE', *, *, #94, .F. ) ;
#109 =( LENGTH_UNIT ( ) NAMED_UNIT ( * ) SI_UNIT ( .MILLI., .METRE. ) );
#110 =( NAMED_UNIT ( * ) SI_UNIT ( $, .STERADIAN. ) SOLID_ANGLE_UNIT ( ) );
#111 = MECHANICAL_DESIGN_GEOMETRIC_PRESENTATION_REPRESENTATION (  '', ( #120 ), #95 ) ;
#112 = ORIENTED_EDGE ( 'NONE', *, *, #68, .T. ) ;
#113 =( NAMED_UNIT ( * ) PLANE_ANGLE_UNIT ( ) SI_UNIT ( $, .RADIAN. ) );
#114 = VERTEX_POINT ( 'NONE', #59 ) ;
#115 = UNCERTAINTY_MEASURE_WITH_UNIT (LENGTH_MEASURE( 1.000000000000000100E-005 ), #38, 'distance_accuracy_value', 'NONE');
#116 = PRESENTATION_STYLE_ASSIGNMENT (( #55 ) ) ;
#117 = SHAPE_DEFINITION_REPRESENTATION ( #118, #174 ) ;
#118 = PRODUCT_DEFINITION_SHAPE ( 'NONE', 'NONE',  #162 ) ;
#119 = VECTOR ( 'NONE', #137, 1000.000000000000000 ) ;
#120 = STYLED_ITEM ( 'NONE', ( #54 ), #174 ) ;
#121 = DIRECTION ( 'NONE',  ( -1.000000000000000000, -0.0000000000000000000, -0.0000000000000000000 ) ) ;
#122 = VERTEX_POINT ( 'NONE', #14 ) ;
#123 = DIRECTION ( 'NONE',  ( -1.000000000000000000, 0.0000000000000000000, 0.0000000000000000000 ) ) ;
#124 = ORIENTED_EDGE ( 'NONE', *, *, #70, .F. ) ;
#125 = CARTESIAN_POINT ( 'NONE',  ( 409.2705352309076300, 28.29082878366378400, 0.0000000000000000000 ) ) ;
#126 = CARTESIAN_POINT ( 'NONE',  ( 409.2705352309076300, 28.29082878366378400, -6.350000000000001400 ) ) ;
#127 =( GEOMETRIC_REPRESENTATION_CONTEXT ( 3 ) GLOBAL_UNCERTAINTY_ASSIGNED_CONTEXT ( ( #115 ) ) GLOBAL_UNIT_ASSIGNED_CONTEXT ( ( #38, #5, #41 ) ) REPRESENTATION_CONTEXT ( 'NONE', 'WORKASPACE' ) );
#128 = APPLICATION_CONTEXT ( 'automotive_design' ) ;
#129 = ORIENTED_EDGE ( 'NONE', *, *, #86, .F. ) ;
#130 = DIRECTION ( 'NONE',  ( 0.0000000000000000000, 0.0000000000000000000, -1.000000000000000000 ) ) ;
#131 = SPHERICAL_SURFACE ( 'NONE', #177, 8.600446428571427000 ) ;
#132 = EDGE_CURVE ( 'NONE', #136, #78, #171, .T. ) ;
#133 = ADVANCED_FACE ( 'NONE', ( #88 ), #104, .F. ) ;
#134 = CIRCLE ( 'NONE', #37, 8.600446428571425300 ) ;
#135 = AXIS2_PLACEMENT_3D ( 'NONE', #40, #153, #165 ) ;
#136 = VERTEX_POINT ( 'NONE', #28 ) ;
#137 = DIRECTION ( 'NONE',  ( -1.000000000000000000, -0.0000000000000000000, -0.0000000000000000000 ) ) ;
#138 = DIRECTION ( 'NONE',  ( -1.000000000000000000, -0.0000000000000000000, -0.0000000000000000000 ) ) ;
#139 = CIRCLE ( 'NONE', #8, 6.350000000000001400 ) ;
#140 = CARTESIAN_POINT ( 'NONE',  ( 410.7705352309076300, 28.29082878366378400, 0.0000000000000000000 ) ) ;
#141 = CARTESIAN_POINT ( 'NONE',  ( 407.0100040850531400, 28.29082878366378400, -6.350000000000001400 ) ) ;
#142 = EDGE_LOOP ( 'NONE', ( #73, #66, #129, #124 ) ) ;
#143 =( LENGTH_UNIT ( ) NAMED_UNIT ( * ) SI_UNIT ( .MILLI., .METRE. ) );
#144 = SURFACE_STYLE_USAGE ( .BOTH. , #90 ) ;
#145 = PRODUCT_CONTEXT ( 'NONE', #89, 'mechanical' ) ;
#146 = SURFACE_STYLE_FILL_AREA ( #179 ) ;
#147 = ADVANCED_FACE ( 'NONE', ( #15 ), #131, .T. ) ;
#148 = EDGE_LOOP ( 'NONE', ( #25, #176, #4, #32, #112 ) ) ;
#149 = AXIS2_PLACEMENT_3D ( 'NONE', #125, #178, #7 ) ;
#150 = VERTEX_POINT ( 'NONE', #46 ) ;
#151 = CARTESIAN_POINT ( 'NONE',  ( 410.7705352309076300, 28.29082878366378400, 0.0000000000000000000 ) ) ;
#152 = CARTESIAN_POINT ( 'NONE',  ( 409.2705352309076300, 28.29082878366378400, 0.0000000000000000000 ) ) ;
#153 = DIRECTION ( 'NONE',  ( -1.000000000000000000, -0.0000000000000000000, -0.0000000000000000000 ) ) ;
#154 = COLOUR_RGB ( '',1.000000000000000000, 1.000000000000000000, 1.000000000000000000 ) ;
#155 = AXIS2_PLACEMENT_3D ( 'NONE', #84, #45, #183 ) ;
#156 = DIRECTION ( 'NONE',  ( 0.0000000000000000000, -1.000000000000000000, -1.224646799147353500E-016 ) ) ;
#157 = CARTESIAN_POINT ( 'NONE',  ( 0.0000000000000000000, 0.0000000000000000000, 0.0000000000000000000 ) ) ;
#158 = EDGE_CURVE ( 'NONE', #114, #150, #134, .T. ) ;
#159 = ORIENTED_EDGE ( 'NONE', *, *, #86, .T. ) ;
#160 = ADVANCED_FACE ( 'NONE', ( #169 ), #163, .T. ) ;
#161 = VERTEX_POINT ( 'NONE', #126 ) ;
#162 = PRODUCT_DEFINITION ( 'Î´Öª', '', #49, #10 ) ;
#163 = CYLINDRICAL_SURFACE ( 'NONE', #164, 6.350000000000001400 ) ;
#164 = AXIS2_PLACEMENT_3D ( 'NONE', #42, #31, #61 ) ;
#165 = DIRECTION ( 'NONE',  ( 0.0000000000000000000, 0.0000000000000000000, 1.000000000000000000 ) ) ;
#166 = DIRECTION ( 'NONE',  ( 0.0000000000000000000, -1.224646799147353200E-016, 1.000000000000000000 ) ) ;
#167 = APPLICATION_PROTOCOL_DEFINITION ( 'draft international standard', 'automotive_design', 1998, #89 ) ;
#168 = ORIENTED_EDGE ( 'NONE', *, *, #97, .F. ) ;
#169 = FACE_OUTER_BOUND ( 'NONE', #181, .T. ) ;
#170 = PRODUCT_RELATED_PRODUCT_CATEGORY ( 'part', '', ( #85 ) ) ;
#171 = CIRCLE ( 'NONE', #155, 6.350000000000001400 ) ;
#172 = AXIS2_PLACEMENT_3D ( 'NONE', #152, #24, #23 ) ;
#173 = CARTESIAN_POINT ( 'NONE',  ( 410.7705352309076300, 28.29082878366378400, -6.350000000000001400 ) ) ;
#174 = ADVANCED_BREP_SHAPE_REPRESENTATION ( '100444', ( #52, #22 ), #9 ) ;
#175 = PRESENTATION_LAYER_ASSIGNMENT (  '', '', ( #120 ) ) ;
#176 = ORIENTED_EDGE ( 'NONE', *, *, #97, .T. ) ;
#177 = AXIS2_PLACEMENT_3D ( 'NONE', #62, #106, #18 ) ;
#178 = DIRECTION ( 'NONE',  ( -1.000000000000000000, -0.0000000000000000000, -0.0000000000000000000 ) ) ;
#179 = FILL_AREA_STYLE ('',( #39 ) ) ;
#180 = CARTESIAN_POINT ( 'NONE',  ( 407.0100040850531400, 28.29082878366378400, 6.350000000000001400 ) ) ;
#181 = EDGE_LOOP ( 'NONE', ( #168, #159, #83, #21, #185 ) ) ;
#182 = DIRECTION ( 'NONE',  ( 0.0000000000000000000, 0.0000000000000000000, 1.000000000000000000 ) ) ;
#183 = DIRECTION ( 'NONE',  ( 0.0000000000000000000, 0.0000000000000000000, 1.000000000000000000 ) ) ;
#184 = MECHANICAL_DESIGN_GEOMETRIC_PRESENTATION_REPRESENTATION (  '', ( #20 ), #127 ) ;
#185 = ORIENTED_EDGE ( 'NONE', *, *, #2, .F. ) ;
#186 = AXIS2_PLACEMENT_3D ( 'NONE', #100, #60, #13 ) ;
ENDSEC;
END-ISO-10303-21;
