ISO-10303-21;
HEADER;
FILE_DESCRIPTION (( 'STEP AP214' ),
    '1' );
FILE_NAME ('100450.STEP',
    '2019-06-10T02:07:44',
    ( '' ),
    ( '' ),
    'SwSTEP 2.0',
    'SolidWorks 2016',
    '' );
FILE_SCHEMA (( 'AUTOMOTIVE_DESIGN' ));
ENDSEC;

DATA;
#1 = EDGE_CURVE ( 'NONE', #96, #29, #89, .T. ) ;
#2 = FACE_OUTER_BOUND ( 'NONE', #148, .T. ) ;
#3 = SPHERICAL_SURFACE ( 'NONE', #138, 62.68461538461550500 ) ;
#4 = DIRECTION ( 'NONE',  ( 0.0000000000000000000, 0.0000000000000000000, 1.000000000000000000 ) ) ;
#5 = CARTESIAN_POINT ( 'NONE',  ( 449.8416097048075200, 96.72427951286488200, 0.0000000000000000000 ) ) ;
#6 = VECTOR ( 'NONE', #35, 1000.000000000000000 ) ;
#7 =( NAMED_UNIT ( * ) SI_UNIT ( $, .STERADIAN. ) SOLID_ANGLE_UNIT ( ) );
#8 = CARTESIAN_POINT ( 'NONE',  ( 444.1033916691311600, 96.72427951286488200, -12.70000000000000300 ) ) ;
#9 =( NAMED_UNIT ( * ) PLANE_ANGLE_UNIT ( ) SI_UNIT ( $, .RADIAN. ) );
#10 = SURFACE_STYLE_FILL_AREA ( #44 ) ;
#11 =( LENGTH_UNIT ( ) NAMED_UNIT ( * ) SI_UNIT ( .MILLI., .METRE. ) );
#12 = DIRECTION ( 'NONE',  ( 1.000000000000000000, 0.0000000000000000000, 0.0000000000000000000 ) ) ;
#13 = ORIENTED_EDGE ( 'NONE', *, *, #95, .F. ) ;
#14 = STYLED_ITEM ( 'NONE', ( #152 ), #177 ) ;
#15 = AXIS2_PLACEMENT_3D ( 'NONE', #120, #77, #172 ) ;
#16 = EDGE_LOOP ( 'NONE', ( #176, #168, #115, #142 ) ) ;
#17 = AXIS2_PLACEMENT_3D ( 'NONE', #169, #18, #4 ) ;
#18 = DIRECTION ( 'NONE',  ( -1.000000000000000000, -0.0000000000000000000, -0.0000000000000000000 ) ) ;
#19 = ORIENTED_EDGE ( 'NONE', *, *, #27, .T. ) ;
#20 = COLOUR_RGB ( '',1.000000000000000000, 1.000000000000000000, 1.000000000000000000 ) ;
#21 = EDGE_CURVE ( 'NONE', #96, #127, #157, .T. ) ;
#22 = ORIENTED_EDGE ( 'NONE', *, *, #32, .T. ) ;
#23 = DIRECTION ( 'NONE',  ( -1.000000000000000000, -0.0000000000000000000, -0.0000000000000000000 ) ) ;
#24 = ADVANCED_FACE ( 'NONE', ( #186 ), #119, .T. ) ;
#25 = DIRECTION ( 'NONE',  ( 0.0000000000000000000, 0.0000000000000000000, 1.000000000000000000 ) ) ;
#26 = AXIS2_PLACEMENT_3D ( 'NONE', #37, #151, #12 ) ;
#27 = EDGE_CURVE ( 'NONE', #127, #171, #129, .T. ) ;
#28 = APPLICATION_PROTOCOL_DEFINITION ( 'draft international standard', 'automotive_design', 1998, #80 ) ;
#29 = VERTEX_POINT ( 'NONE', #52 ) ;
#30 = ORIENTED_EDGE ( 'NONE', *, *, #102, .F. ) ;
#31 =( GEOMETRIC_REPRESENTATION_CONTEXT ( 3 ) GLOBAL_UNCERTAINTY_ASSIGNED_CONTEXT ( ( #150 ) ) GLOBAL_UNIT_ASSIGNED_CONTEXT ( ( #137, #9, #111 ) ) REPRESENTATION_CONTEXT ( 'NONE', 'WORKASPACE' ) );
#32 = EDGE_CURVE ( 'NONE', #136, #29, #83, .T. ) ;
#33 = DIRECTION ( 'NONE',  ( 1.000000000000000000, 0.0000000000000000000, 0.0000000000000000000 ) ) ;
#34 = ORIENTED_EDGE ( 'NONE', *, *, #1, .F. ) ;
#35 = DIRECTION ( 'NONE',  ( -1.000000000000000000, -0.0000000000000000000, -0.0000000000000000000 ) ) ;
#36 = DIRECTION ( 'NONE',  ( -0.0000000000000000000, 0.0000000000000000000, -1.000000000000000000 ) ) ;
#37 = CARTESIAN_POINT ( 'NONE',  ( 0.0000000000000000000, 0.0000000000000000000, 0.0000000000000000000 ) ) ;
#38 =( GEOMETRIC_REPRESENTATION_CONTEXT ( 3 ) GLOBAL_UNCERTAINTY_ASSIGNED_CONTEXT ( ( #167 ) ) GLOBAL_UNIT_ASSIGNED_CONTEXT ( ( #11, #62, #182 ) ) REPRESENTATION_CONTEXT ( 'NONE', 'WORKASPACE' ) );
#39 =( LENGTH_UNIT ( ) NAMED_UNIT ( * ) SI_UNIT ( .MILLI., .METRE. ) );
#40 = DIRECTION ( 'NONE',  ( -1.000000000000000000, -0.0000000000000000000, -0.0000000000000000000 ) ) ;
#41 = AXIS2_PLACEMENT_3D ( 'NONE', #175, #56, #55 ) ;
#42 = ADVANCED_FACE ( 'NONE', ( #67 ), #158, .F. ) ;
#43 = DIRECTION ( 'NONE',  ( -1.000000000000000000, -0.0000000000000000000, -0.0000000000000000000 ) ) ;
#44 = FILL_AREA_STYLE ('',( #159 ) ) ;
#45 = PRODUCT_DEFINITION_FORMATION_WITH_SPECIFIED_SOURCE ( 'ÈÎºÎ', '', #86, .NOT_KNOWN. ) ;
#46 = COLOUR_RGB ( '',1.000000000000000000, 1.000000000000000000, 1.000000000000000000 ) ;
#47 = VECTOR ( 'NONE', #23, 1000.000000000000000 ) ;
#48 = APPLICATION_CONTEXT ( 'automotive_design' ) ;
#49 = CYLINDRICAL_SURFACE ( 'NONE', #69, 12.70000000000000300 ) ;
#50 = ORIENTED_EDGE ( 'NONE', *, *, #183, .F. ) ;
#51 = AXIS2_PLACEMENT_3D ( 'NONE', #124, #43, #135 ) ;
#52 = CARTESIAN_POINT ( 'NONE',  ( 451.8416097048075200, 109.4242795128649300, 0.0000000000000000000 ) ) ;
#53 = DIRECTION ( 'NONE',  ( -1.000000000000000000, -0.0000000000000000000, -0.0000000000000000000 ) ) ;
#54 = EDGE_CURVE ( 'NONE', #171, #127, #93, .T. ) ;
#55 = DIRECTION ( 'NONE',  ( 0.0000000000000000000, 1.000000000000000000, 1.224646799147353200E-016 ) ) ;
#56 = DIRECTION ( 'NONE',  ( 0.0000000000000000000, 1.224646799147353200E-016, -1.000000000000000000 ) ) ;
#57 = AXIS2_PLACEMENT_3D ( 'NONE', #70, #53, #143 ) ;
#58 = EDGE_LOOP ( 'NONE', ( #19, #78 ) ) ;
#59 = DIRECTION ( 'NONE',  ( 0.0000000000000000000, 1.000000000000000000, 0.0000000000000000000 ) ) ;
#60 = CARTESIAN_POINT ( 'NONE',  ( 451.8416097048075200, 96.72427951286488200, 0.0000000000000000000 ) ) ;
#61 = APPLICATION_PROTOCOL_DEFINITION ( 'draft international standard', 'automotive_design', 1998, #48 ) ;
#62 =( NAMED_UNIT ( * ) PLANE_ANGLE_UNIT ( ) SI_UNIT ( $, .RADIAN. ) );
#63 = SURFACE_SIDE_STYLE ('',( #10 ) ) ;
#64 = PRODUCT_RELATED_PRODUCT_CATEGORY ( 'part', '', ( #86 ) ) ;
#65 = VERTEX_POINT ( 'NONE', #144 ) ;
#66 = PRODUCT_DEFINITION_CONTEXT ( 'detailed design', #80, 'design' ) ;
#67 = FACE_OUTER_BOUND ( 'NONE', #58, .T. ) ;
#68 = ORIENTED_EDGE ( 'NONE', *, *, #21, .F. ) ;
#69 = AXIS2_PLACEMENT_3D ( 'NONE', #72, #74, #92 ) ;
#70 = CARTESIAN_POINT ( 'NONE',  ( 444.1033916691311600, 96.72427951286488200, 0.0000000000000000000 ) ) ;
#71 = CARTESIAN_POINT ( 'NONE',  ( 390.4569943201920500, 96.72427951286482500, 0.0000000000000000000 ) ) ;
#72 = CARTESIAN_POINT ( 'NONE',  ( 444.1033916691311600, 96.72427951286488200, 0.0000000000000000000 ) ) ;
#73 = ADVANCED_FACE ( 'NONE', ( #2 ), #87, .T. ) ;
#74 = DIRECTION ( 'NONE',  ( -1.000000000000000000, -0.0000000000000000000, -0.0000000000000000000 ) ) ;
#75 = FILL_AREA_STYLE_COLOUR ( '', #46 ) ;
#76 = PRESENTATION_LAYER_ASSIGNMENT (  '', '', ( #125 ) ) ;
#77 = DIRECTION ( 'NONE',  ( -0.0000000000000000000, 0.0000000000000000000, -1.000000000000000000 ) ) ;
#78 = ORIENTED_EDGE ( 'NONE', *, *, #54, .T. ) ;
#79 = UNCERTAINTY_MEASURE_WITH_UNIT (LENGTH_MEASURE( 1.000000000000000100E-005 ), #39, 'distance_accuracy_value', 'NONE');
#80 = APPLICATION_CONTEXT ( 'automotive_design' ) ;
#81 = ORIENTED_EDGE ( 'NONE', *, *, #54, .F. ) ;
#82 = AXIS2_PLACEMENT_3D ( 'NONE', #103, #130, #131 ) ;
#83 = CIRCLE ( 'NONE', #154, 62.68461538461550500 ) ;
#84 =( GEOMETRIC_REPRESENTATION_CONTEXT ( 3 ) GLOBAL_UNCERTAINTY_ASSIGNED_CONTEXT ( ( #79 ) ) GLOBAL_UNIT_ASSIGNED_CONTEXT ( ( #39, #162, #7 ) ) REPRESENTATION_CONTEXT ( 'NONE', 'WORKASPACE' ) );
#85 = FACE_OUTER_BOUND ( 'NONE', #140, .T. ) ;
#86 = PRODUCT ( '100450', '100450', '', ( #163 ) ) ;
#87 = SPHERICAL_SURFACE ( 'NONE', #15, 62.68461538461550500 ) ;
#88 = CARTESIAN_POINT ( 'NONE',  ( 453.1416097048075400, 96.72427951286482500, 0.0000000000000000000 ) ) ;
#89 = CIRCLE ( 'NONE', #17, 12.70000000000000300 ) ;
#90 = SURFACE_SIDE_STYLE ('',( #185 ) ) ;
#91 = ADVANCED_FACE ( 'NONE', ( #85 ), #49, .T. ) ;
#92 = DIRECTION ( 'NONE',  ( 0.0000000000000000000, 0.0000000000000000000, 1.000000000000000000 ) ) ;
#93 = CIRCLE ( 'NONE', #112, 12.70000000000000300 ) ;
#94 = FACE_OUTER_BOUND ( 'NONE', #16, .T. ) ;
#95 = EDGE_CURVE ( 'NONE', #65, #96, #110, .T. ) ;
#96 = VERTEX_POINT ( 'NONE', #123 ) ;
#97 = CARTESIAN_POINT ( 'NONE',  ( 449.8416097048075200, 96.72427951286488200, -12.70000000000000300 ) ) ;
#98 = DIRECTION ( 'NONE',  ( -1.000000000000000000, -0.0000000000000000000, -0.0000000000000000000 ) ) ;
#99 = DIRECTION ( 'NONE',  ( -1.000000000000000000, -0.0000000000000000000, -0.0000000000000000000 ) ) ;
#100 = ORIENTED_EDGE ( 'NONE', *, *, #183, .T. ) ;
#101 = MANIFOLD_SOLID_BREP ( 'Ðý×ª1', #126 ) ;
#102 = EDGE_CURVE ( 'NONE', #136, #65, #113, .T. ) ;
#103 = CARTESIAN_POINT ( 'NONE',  ( 449.8416097048075200, 96.72427951286488200, 0.0000000000000000000 ) ) ;
#104 = ORIENTED_EDGE ( 'NONE', *, *, #95, .T. ) ;
#105 = EDGE_CURVE ( 'NONE', #29, #173, #179, .T. ) ;
#106 = ORIENTED_EDGE ( 'NONE', *, *, #109, .T. ) ;
#107 = PRESENTATION_LAYER_ASSIGNMENT (  '', '', ( #14 ) ) ;
#108 = ADVANCED_FACE ( 'NONE', ( #94 ), #3, .T. ) ;
#109 = EDGE_CURVE ( 'NONE', #173, #65, #116, .T. ) ;
#110 = CIRCLE ( 'NONE', #133, 12.70000000000000300 ) ;
#111 =( NAMED_UNIT ( * ) SI_UNIT ( $, .STERADIAN. ) SOLID_ANGLE_UNIT ( ) );
#112 = AXIS2_PLACEMENT_3D ( 'NONE', #5, #98, #25 ) ;
#113 = CIRCLE ( 'NONE', #41, 62.68461538461550500 ) ;
#114 = DIRECTION ( 'NONE',  ( -0.0000000000000000000, 0.0000000000000000000, 1.000000000000000000 ) ) ;
#115 = ORIENTED_EDGE ( 'NONE', *, *, #109, .F. ) ;
#116 = CIRCLE ( 'NONE', #118, 12.70000000000000300 ) ;
#117 = CARTESIAN_POINT ( 'NONE',  ( 449.8416097048075200, 96.72427951286488200, 0.0000000000000000000 ) ) ;
#118 = AXIS2_PLACEMENT_3D ( 'NONE', #60, #99, #174 ) ;
#119 = CYLINDRICAL_SURFACE ( 'NONE', #57, 12.70000000000000300 ) ;
#120 = CARTESIAN_POINT ( 'NONE',  ( 390.4569943201920500, 96.72427951286482500, 0.0000000000000000000 ) ) ;
#121 = SURFACE_STYLE_USAGE ( .BOTH. , #90 ) ;
#122 = ORIENTED_EDGE ( 'NONE', *, *, #27, .F. ) ;
#123 = CARTESIAN_POINT ( 'NONE',  ( 451.8416097048075200, 96.72427951286488200, 12.70000000000000300 ) ) ;
#124 = CARTESIAN_POINT ( 'NONE',  ( 451.8416097048075200, 96.72427951286488200, 0.0000000000000000000 ) ) ;
#125 = STYLED_ITEM ( 'NONE', ( #145 ), #101 ) ;
#126 = CLOSED_SHELL ( 'NONE', ( #24, #108, #73, #91, #42 ) ) ;
#127 = VERTEX_POINT ( 'NONE', #132 ) ;
#128 = MECHANICAL_DESIGN_GEOMETRIC_PRESENTATION_REPRESENTATION (  '', ( #14 ), #31 ) ;
#129 = CIRCLE ( 'NONE', #82, 12.70000000000000300 ) ;
#130 = DIRECTION ( 'NONE',  ( -1.000000000000000000, -0.0000000000000000000, -0.0000000000000000000 ) ) ;
#131 = DIRECTION ( 'NONE',  ( 0.0000000000000000000, 0.0000000000000000000, 1.000000000000000000 ) ) ;
#132 = CARTESIAN_POINT ( 'NONE',  ( 449.8416097048075200, 96.72427951286488200, 12.70000000000000300 ) ) ;
#133 = AXIS2_PLACEMENT_3D ( 'NONE', #147, #40, #134 ) ;
#134 = DIRECTION ( 'NONE',  ( 0.0000000000000000000, 0.0000000000000000000, 1.000000000000000000 ) ) ;
#135 = DIRECTION ( 'NONE',  ( 0.0000000000000000000, 0.0000000000000000000, 1.000000000000000000 ) ) ;
#136 = VERTEX_POINT ( 'NONE', #88 ) ;
#137 =( LENGTH_UNIT ( ) NAMED_UNIT ( * ) SI_UNIT ( .MILLI., .METRE. ) );
#138 = AXIS2_PLACEMENT_3D ( 'NONE', #160, #36, #59 ) ;
#139 = PRODUCT_DEFINITION_SHAPE ( 'NONE', 'NONE',  #153 ) ;
#140 = EDGE_LOOP ( 'NONE', ( #50, #106, #104, #166, #81 ) ) ;
#141 = MECHANICAL_DESIGN_GEOMETRIC_PRESENTATION_REPRESENTATION (  '', ( #125 ), #84 ) ;
#142 = ORIENTED_EDGE ( 'NONE', *, *, #105, .F. ) ;
#143 = DIRECTION ( 'NONE',  ( 0.0000000000000000000, 0.0000000000000000000, 1.000000000000000000 ) ) ;
#144 = CARTESIAN_POINT ( 'NONE',  ( 451.8416097048075200, 84.02427951286478000, -1.555301434917142400E-015 ) ) ;
#145 = PRESENTATION_STYLE_ASSIGNMENT (( #121 ) ) ;
#146 = CARTESIAN_POINT ( 'NONE',  ( 451.8416097048075200, 96.72427951286488200, -12.70000000000000300 ) ) ;
#147 = CARTESIAN_POINT ( 'NONE',  ( 451.8416097048075200, 96.72427951286488200, 0.0000000000000000000 ) ) ;
#148 = EDGE_LOOP ( 'NONE', ( #30, #22, #34, #13 ) ) ;
#149 = DIRECTION ( 'NONE',  ( 0.0000000000000000000, 0.0000000000000000000, -1.000000000000000000 ) ) ;
#150 = UNCERTAINTY_MEASURE_WITH_UNIT (LENGTH_MEASURE( 1.000000000000000100E-005 ), #137, 'distance_accuracy_value', 'NONE');
#151 = DIRECTION ( 'NONE',  ( 0.0000000000000000000, 0.0000000000000000000, 1.000000000000000000 ) ) ;
#152 = PRESENTATION_STYLE_ASSIGNMENT (( #180 ) ) ;
#153 = PRODUCT_DEFINITION ( 'Î´Öª', '', #45, #66 ) ;
#154 = AXIS2_PLACEMENT_3D ( 'NONE', #71, #114, #33 ) ;
#155 = ORIENTED_EDGE ( 'NONE', *, *, #105, .T. ) ;
#156 = DIRECTION ( 'NONE',  ( 1.000000000000000000, 0.0000000000000000000, 0.0000000000000000000 ) ) ;
#157 = LINE ( 'NONE', #170, #6 ) ;
#158 = PLANE ( 'NONE',  #161 ) ;
#159 = FILL_AREA_STYLE_COLOUR ( '', #20 ) ;
#160 = CARTESIAN_POINT ( 'NONE',  ( 390.4569943201920500, 96.72427951286482500, 0.0000000000000000000 ) ) ;
#161 = AXIS2_PLACEMENT_3D ( 'NONE', #117, #156, #149 ) ;
#162 =( NAMED_UNIT ( * ) PLANE_ANGLE_UNIT ( ) SI_UNIT ( $, .RADIAN. ) );
#163 = PRODUCT_CONTEXT ( 'NONE', #48, 'mechanical' ) ;
#164 = EDGE_LOOP ( 'NONE', ( #155, #100, #122, #68, #184 ) ) ;
#165 = SHAPE_DEFINITION_REPRESENTATION ( #139, #177 ) ;
#166 = ORIENTED_EDGE ( 'NONE', *, *, #21, .T. ) ;
#167 = UNCERTAINTY_MEASURE_WITH_UNIT (LENGTH_MEASURE( 1.000000000000000100E-005 ), #11, 'distance_accuracy_value', 'NONE');
#168 = ORIENTED_EDGE ( 'NONE', *, *, #102, .T. ) ;
#169 = CARTESIAN_POINT ( 'NONE',  ( 451.8416097048075200, 96.72427951286488200, 0.0000000000000000000 ) ) ;
#170 = CARTESIAN_POINT ( 'NONE',  ( 444.1033916691311600, 96.72427951286488200, 12.70000000000000300 ) ) ;
#171 = VERTEX_POINT ( 'NONE', #97 ) ;
#172 = DIRECTION ( 'NONE',  ( 0.0000000000000000000, 1.000000000000000000, 0.0000000000000000000 ) ) ;
#173 = VERTEX_POINT ( 'NONE', #146 ) ;
#174 = DIRECTION ( 'NONE',  ( 0.0000000000000000000, 0.0000000000000000000, 1.000000000000000000 ) ) ;
#175 = CARTESIAN_POINT ( 'NONE',  ( 390.4569943201920500, 96.72427951286482500, 0.0000000000000000000 ) ) ;
#176 = ORIENTED_EDGE ( 'NONE', *, *, #32, .F. ) ;
#177 = ADVANCED_BREP_SHAPE_REPRESENTATION ( '100450', ( #101, #26 ), #38 ) ;
#178 = FILL_AREA_STYLE ('',( #75 ) ) ;
#179 = CIRCLE ( 'NONE', #51, 12.70000000000000300 ) ;
#180 = SURFACE_STYLE_USAGE ( .BOTH. , #63 ) ;
#181 = LINE ( 'NONE', #8, #47 ) ;
#182 =( NAMED_UNIT ( * ) SI_UNIT ( $, .STERADIAN. ) SOLID_ANGLE_UNIT ( ) );
#183 = EDGE_CURVE ( 'NONE', #173, #171, #181, .T. ) ;
#184 = ORIENTED_EDGE ( 'NONE', *, *, #1, .T. ) ;
#185 = SURFACE_STYLE_FILL_AREA ( #178 ) ;
#186 = FACE_OUTER_BOUND ( 'NONE', #164, .T. ) ;
ENDSEC;
END-ISO-10303-21;
