ISO-10303-21;
HEADER;
FILE_DESCRIPTION (( 'STEP AP214' ),
    '1' );
FILE_NAME ('100447.STEP',
    '2019-06-10T01:41:18',
    ( '' ),
    ( '' ),
    'SwSTEP 2.0',
    'SolidWorks 2016',
    '' );
FILE_SCHEMA (( 'AUTOMOTIVE_DESIGN' ));
ENDSEC;

DATA;
#1 = EDGE_CURVE ( 'NONE', #137, #5, #31, .T. ) ;
#2 = ORIENTED_EDGE ( 'NONE', *, *, #68, .T. ) ;
#3 = CIRCLE ( 'NONE', #19, 12.70000000000000300 ) ;
#4 = EDGE_CURVE ( 'NONE', #161, #5, #3, .T. ) ;
#5 = VERTEX_POINT ( 'NONE', #78 ) ;
#6 = SHAPE_DEFINITION_REPRESENTATION ( #123, #81 ) ;
#7 = CIRCLE ( 'NONE', #150, 12.70000000000000300 ) ;
#8 = SURFACE_STYLE_FILL_AREA ( #50 ) ;
#9 = ORIENTED_EDGE ( 'NONE', *, *, #1, .T. ) ;
#10 = CARTESIAN_POINT ( 'NONE',  ( 681.4103454351834400, 68.03616460286244200, 0.0000000000000000000 ) ) ;
#11 = PLANE ( 'NONE',  #42 ) ;
#12 = LINE ( 'NONE', #100, #21 ) ;
#13 = CARTESIAN_POINT ( 'NONE',  ( 673.6721273995070800, 68.03616460286244200, 0.0000000000000000000 ) ) ;
#14 = ADVANCED_FACE ( 'NONE', ( #16 ), #11, .F. ) ;
#15 = VERTEX_POINT ( 'NONE', #54 ) ;
#16 = FACE_OUTER_BOUND ( 'NONE', #23, .T. ) ;
#17 = ORIENTED_EDGE ( 'NONE', *, *, #74, .F. ) ;
#18 = COLOUR_RGB ( '',1.000000000000000000, 1.000000000000000000, 1.000000000000000000 ) ;
#19 = AXIS2_PLACEMENT_3D ( 'NONE', #128, #146, #102 ) ;
#20 = ORIENTED_EDGE ( 'NONE', *, *, #108, .T. ) ;
#21 = VECTOR ( 'NONE', #30, 1000.000000000000000 ) ;
#22 = CIRCLE ( 'NONE', #135, 12.70000000000000300 ) ;
#23 = EDGE_LOOP ( 'NONE', ( #2, #94 ) ) ;
#24 = SPHERICAL_SURFACE ( 'NONE', #80, 21.71951219512203200 ) ;
#25 = CARTESIAN_POINT ( 'NONE',  ( 663.7908332400613700, 68.03616460286239900, 0.0000000000000000000 ) ) ;
#26 = SURFACE_STYLE_USAGE ( .BOTH. , #141 ) ;
#27 = STYLED_ITEM ( 'NONE', ( #142 ), #174 ) ;
#28 = APPLICATION_PROTOCOL_DEFINITION ( 'draft international standard', 'automotive_design', 1998, #162 ) ;
#29 = EDGE_CURVE ( 'NONE', #5, #15, #44, .T. ) ;
#30 = DIRECTION ( 'NONE',  ( -1.000000000000000000, -0.0000000000000000000, -0.0000000000000000000 ) ) ;
#31 = CIRCLE ( 'NONE', #75, 21.71951219512202500 ) ;
#32 = ORIENTED_EDGE ( 'NONE', *, *, #77, .T. ) ;
#33 = DIRECTION ( 'NONE',  ( -1.000000000000000000, -0.0000000000000000000, -0.0000000000000000000 ) ) ;
#34 = AXIS2_PLACEMENT_3D ( 'NONE', #58, #104, #143 ) ;
#35 =( NAMED_UNIT ( * ) PLANE_ANGLE_UNIT ( ) SI_UNIT ( $, .RADIAN. ) );
#36 = DIRECTION ( 'NONE',  ( -0.0000000000000000000, 0.0000000000000000000, 1.000000000000000000 ) ) ;
#37 = ORIENTED_EDGE ( 'NONE', *, *, #74, .T. ) ;
#38 = APPLICATION_CONTEXT ( 'automotive_design' ) ;
#39 = ORIENTED_EDGE ( 'NONE', *, *, #84, .F. ) ;
#40 = DIRECTION ( 'NONE',  ( 0.0000000000000000000, 0.0000000000000000000, 1.000000000000000000 ) ) ;
#41 = DIRECTION ( 'NONE',  ( 0.0000000000000000000, 0.0000000000000000000, 1.000000000000000000 ) ) ;
#42 = AXIS2_PLACEMENT_3D ( 'NONE', #98, #87, #113 ) ;
#43 = ORIENTED_EDGE ( 'NONE', *, *, #29, .F. ) ;
#44 = CIRCLE ( 'NONE', #120, 12.70000000000000300 ) ;
#45 = CIRCLE ( 'NONE', #53, 12.70000000000000300 ) ;
#46 = FILL_AREA_STYLE_COLOUR ( '', #18 ) ;
#47 = CLOSED_SHELL ( 'NONE', ( #116, #130, #186, #56, #14 ) ) ;
#48 =( LENGTH_UNIT ( ) NAMED_UNIT ( * ) SI_UNIT ( .MILLI., .METRE. ) );
#49 = VERTEX_POINT ( 'NONE', #170 ) ;
#50 = FILL_AREA_STYLE ('',( #46 ) ) ;
#51 = MECHANICAL_DESIGN_GEOMETRIC_PRESENTATION_REPRESENTATION (  '', ( #27 ), #134 ) ;
#52 = CARTESIAN_POINT ( 'NONE',  ( 673.6721273995070800, 68.03616460286244200, -12.70000000000000300 ) ) ;
#53 = AXIS2_PLACEMENT_3D ( 'NONE', #115, #88, #158 ) ;
#54 = CARTESIAN_POINT ( 'NONE',  ( 681.4103454351834400, 68.03616460286244200, -12.70000000000000300 ) ) ;
#55 = DIRECTION ( 'NONE',  ( -1.000000000000000000, -0.0000000000000000000, -0.0000000000000000000 ) ) ;
#56 = ADVANCED_FACE ( 'NONE', ( #171 ), #145, .T. ) ;
#57 = DIRECTION ( 'NONE',  ( -1.000000000000000000, -0.0000000000000000000, -0.0000000000000000000 ) ) ;
#58 = CARTESIAN_POINT ( 'NONE',  ( 663.7908332400613700, 68.03616460286239900, 0.0000000000000000000 ) ) ;
#59 = ORIENTED_EDGE ( 'NONE', *, *, #29, .T. ) ;
#60 = PRODUCT_DEFINITION ( 'Î´Öª', '', #72, #175 ) ;
#61 = AXIS2_PLACEMENT_3D ( 'NONE', #117, #57, #41 ) ;
#62 = AXIS2_PLACEMENT_3D ( 'NONE', #13, #169, #71 ) ;
#63 = FACE_OUTER_BOUND ( 'NONE', #106, .T. ) ;
#64 = ORIENTED_EDGE ( 'NONE', *, *, #68, .F. ) ;
#65 = CARTESIAN_POINT ( 'NONE',  ( 681.4103454351834400, 55.33616460286239700, -1.555301434917138000E-015 ) ) ;
#66 =( NAMED_UNIT ( * ) SI_UNIT ( $, .STERADIAN. ) SOLID_ANGLE_UNIT ( ) );
#67 = CARTESIAN_POINT ( 'NONE',  ( 0.0000000000000000000, 0.0000000000000000000, 0.0000000000000000000 ) ) ;
#68 = EDGE_CURVE ( 'NONE', #99, #49, #45, .T. ) ;
#69 = SURFACE_SIDE_STYLE ('',( #110 ) ) ;
#70 = DIRECTION ( 'NONE',  ( -1.000000000000000000, -0.0000000000000000000, -0.0000000000000000000 ) ) ;
#71 = DIRECTION ( 'NONE',  ( 0.0000000000000000000, 0.0000000000000000000, 1.000000000000000000 ) ) ;
#72 = PRODUCT_DEFINITION_FORMATION_WITH_SPECIFIED_SOURCE ( 'ÈÎºÎ', '', #177, .NOT_KNOWN. ) ;
#73 = PRESENTATION_LAYER_ASSIGNMENT (  '', '', ( #107 ) ) ;
#74 = EDGE_CURVE ( 'NONE', #15, #159, #176, .T. ) ;
#75 = AXIS2_PLACEMENT_3D ( 'NONE', #25, #36, #82 ) ;
#76 = EDGE_LOOP ( 'NONE', ( #127, #37, #20, #32, #121 ) ) ;
#77 = EDGE_CURVE ( 'NONE', #161, #99, #12, .T. ) ;
#78 = CARTESIAN_POINT ( 'NONE',  ( 681.4103454351834400, 80.73616460286243100, 0.0000000000000000000 ) ) ;
#79 =( NAMED_UNIT ( * ) SI_UNIT ( $, .STERADIAN. ) SOLID_ANGLE_UNIT ( ) );
#80 = AXIS2_PLACEMENT_3D ( 'NONE', #164, #125, #97 ) ;
#81 = ADVANCED_BREP_SHAPE_REPRESENTATION ( '100447', ( #174, #138 ), #91 ) ;
#82 = DIRECTION ( 'NONE',  ( 1.000000000000000000, 0.0000000000000000000, 0.0000000000000000000 ) ) ;
#83 = DIRECTION ( 'NONE',  ( -1.000000000000000000, -0.0000000000000000000, -0.0000000000000000000 ) ) ;
#84 = EDGE_CURVE ( 'NONE', #137, #159, #157, .T. ) ;
#85 = DIRECTION ( 'NONE',  ( 0.0000000000000000000, 1.000000000000000000, 1.224646799147353000E-016 ) ) ;
#86 = CARTESIAN_POINT ( 'NONE',  ( 679.4103454351834400, 68.03616460286244200, 12.70000000000000300 ) ) ;
#87 = DIRECTION ( 'NONE',  ( 1.000000000000000000, 0.0000000000000000000, 0.0000000000000000000 ) ) ;
#88 = DIRECTION ( 'NONE',  ( -1.000000000000000000, -0.0000000000000000000, -0.0000000000000000000 ) ) ;
#89 = EDGE_LOOP ( 'NONE', ( #39, #9, #160, #163 ) ) ;
#90 = ORIENTED_EDGE ( 'NONE', *, *, #1, .F. ) ;
#91 =( GEOMETRIC_REPRESENTATION_CONTEXT ( 3 ) GLOBAL_UNCERTAINTY_ASSIGNED_CONTEXT ( ( #133 ) ) GLOBAL_UNIT_ASSIGNED_CONTEXT ( ( #140, #35, #112 ) ) REPRESENTATION_CONTEXT ( 'NONE', 'WORKASPACE' ) );
#92 = EDGE_CURVE ( 'NONE', #49, #99, #22, .T. ) ;
#93 = ORIENTED_EDGE ( 'NONE', *, *, #114, .T. ) ;
#94 = ORIENTED_EDGE ( 'NONE', *, *, #92, .T. ) ;
#95 = FILL_AREA_STYLE ('',( #111 ) ) ;
#96 = PRESENTATION_LAYER_ASSIGNMENT (  '', '', ( #27 ) ) ;
#97 = DIRECTION ( 'NONE',  ( 0.0000000000000000000, 1.000000000000000000, 0.0000000000000000000 ) ) ;
#98 = CARTESIAN_POINT ( 'NONE',  ( 679.4103454351834400, 68.03616460286244200, 0.0000000000000000000 ) ) ;
#99 = VERTEX_POINT ( 'NONE', #86 ) ;
#100 = CARTESIAN_POINT ( 'NONE',  ( 673.6721273995070800, 68.03616460286244200, 12.70000000000000300 ) ) ;
#101 = DIRECTION ( 'NONE',  ( -1.000000000000000000, -0.0000000000000000000, -0.0000000000000000000 ) ) ;
#102 = DIRECTION ( 'NONE',  ( 0.0000000000000000000, 0.0000000000000000000, 1.000000000000000000 ) ) ;
#103 =( GEOMETRIC_REPRESENTATION_CONTEXT ( 3 ) GLOBAL_UNCERTAINTY_ASSIGNED_CONTEXT ( ( #153 ) ) GLOBAL_UNIT_ASSIGNED_CONTEXT ( ( #48, #183, #66 ) ) REPRESENTATION_CONTEXT ( 'NONE', 'WORKASPACE' ) );
#104 = DIRECTION ( 'NONE',  ( -0.0000000000000000000, 0.0000000000000000000, -1.000000000000000000 ) ) ;
#105 = AXIS2_PLACEMENT_3D ( 'NONE', #156, #83, #131 ) ;
#106 = EDGE_LOOP ( 'NONE', ( #59, #93, #64, #132, #173 ) ) ;
#107 = STYLED_ITEM ( 'NONE', ( #148 ), #81 ) ;
#108 = EDGE_CURVE ( 'NONE', #159, #161, #7, .T. ) ;
#109 = COLOUR_RGB ( '',1.000000000000000000, 1.000000000000000000, 1.000000000000000000 ) ;
#110 = SURFACE_STYLE_FILL_AREA ( #95 ) ;
#111 = FILL_AREA_STYLE_COLOUR ( '', #109 ) ;
#112 =( NAMED_UNIT ( * ) SI_UNIT ( $, .STERADIAN. ) SOLID_ANGLE_UNIT ( ) );
#113 = DIRECTION ( 'NONE',  ( 0.0000000000000000000, 0.0000000000000000000, -1.000000000000000000 ) ) ;
#114 = EDGE_CURVE ( 'NONE', #15, #49, #136, .T. ) ;
#115 = CARTESIAN_POINT ( 'NONE',  ( 679.4103454351834400, 68.03616460286244200, 0.0000000000000000000 ) ) ;
#116 = ADVANCED_FACE ( 'NONE', ( #63 ), #185, .T. ) ;
#117 = CARTESIAN_POINT ( 'NONE',  ( 673.6721273995070800, 68.03616460286244200, 0.0000000000000000000 ) ) ;
#118 = CARTESIAN_POINT ( 'NONE',  ( 681.4103454351834400, 68.03616460286244200, 0.0000000000000000000 ) ) ;
#119 = MECHANICAL_DESIGN_GEOMETRIC_PRESENTATION_REPRESENTATION (  '', ( #107 ), #103 ) ;
#120 = AXIS2_PLACEMENT_3D ( 'NONE', #10, #101, #144 ) ;
#121 = ORIENTED_EDGE ( 'NONE', *, *, #92, .F. ) ;
#122 = VECTOR ( 'NONE', #70, 1000.000000000000000 ) ;
#123 = PRODUCT_DEFINITION_SHAPE ( 'NONE', 'NONE',  #60 ) ;
#124 = CARTESIAN_POINT ( 'NONE',  ( 681.4103454351834400, 68.03616460286244200, 12.70000000000000300 ) ) ;
#125 = DIRECTION ( 'NONE',  ( -0.0000000000000000000, 0.0000000000000000000, -1.000000000000000000 ) ) ;
#126 = AXIS2_PLACEMENT_3D ( 'NONE', #167, #147, #85 ) ;
#127 = ORIENTED_EDGE ( 'NONE', *, *, #114, .F. ) ;
#128 = CARTESIAN_POINT ( 'NONE',  ( 681.4103454351834400, 68.03616460286244200, 0.0000000000000000000 ) ) ;
#129 = CARTESIAN_POINT ( 'NONE',  ( 679.4103454351834400, 68.03616460286244200, 0.0000000000000000000 ) ) ;
#130 = ADVANCED_FACE ( 'NONE', ( #184 ), #151, .T. ) ;
#131 = DIRECTION ( 'NONE',  ( 0.0000000000000000000, 0.0000000000000000000, 1.000000000000000000 ) ) ;
#132 = ORIENTED_EDGE ( 'NONE', *, *, #77, .F. ) ;
#133 = UNCERTAINTY_MEASURE_WITH_UNIT (LENGTH_MEASURE( 1.000000000000000100E-005 ), #140, 'distance_accuracy_value', 'NONE');
#134 =( GEOMETRIC_REPRESENTATION_CONTEXT ( 3 ) GLOBAL_UNCERTAINTY_ASSIGNED_CONTEXT ( ( #182 ) ) GLOBAL_UNIT_ASSIGNED_CONTEXT ( ( #154, #166, #79 ) ) REPRESENTATION_CONTEXT ( 'NONE', 'WORKASPACE' ) );
#135 = AXIS2_PLACEMENT_3D ( 'NONE', #129, #55, #149 ) ;
#136 = LINE ( 'NONE', #52, #122 ) ;
#137 = VERTEX_POINT ( 'NONE', #180 ) ;
#138 = AXIS2_PLACEMENT_3D ( 'NONE', #67, #165, #181 ) ;
#139 = PRODUCT_CONTEXT ( 'NONE', #38, 'mechanical' ) ;
#140 =( LENGTH_UNIT ( ) NAMED_UNIT ( * ) SI_UNIT ( .MILLI., .METRE. ) );
#141 = SURFACE_SIDE_STYLE ('',( #8 ) ) ;
#142 = PRESENTATION_STYLE_ASSIGNMENT (( #155 ) ) ;
#143 = DIRECTION ( 'NONE',  ( 0.0000000000000000000, 1.000000000000000000, 0.0000000000000000000 ) ) ;
#144 = DIRECTION ( 'NONE',  ( 0.0000000000000000000, 0.0000000000000000000, 1.000000000000000000 ) ) ;
#145 = CYLINDRICAL_SURFACE ( 'NONE', #62, 12.70000000000000300 ) ;
#146 = DIRECTION ( 'NONE',  ( -1.000000000000000000, -0.0000000000000000000, -0.0000000000000000000 ) ) ;
#147 = DIRECTION ( 'NONE',  ( 0.0000000000000000000, 1.224646799147353200E-016, -1.000000000000000000 ) ) ;
#148 = PRESENTATION_STYLE_ASSIGNMENT (( #26 ) ) ;
#149 = DIRECTION ( 'NONE',  ( 0.0000000000000000000, 0.0000000000000000000, 1.000000000000000000 ) ) ;
#150 = AXIS2_PLACEMENT_3D ( 'NONE', #118, #33, #40 ) ;
#151 = SPHERICAL_SURFACE ( 'NONE', #34, 21.71951219512203200 ) ;
#152 = FACE_OUTER_BOUND ( 'NONE', #89, .T. ) ;
#153 = UNCERTAINTY_MEASURE_WITH_UNIT (LENGTH_MEASURE( 1.000000000000000100E-005 ), #48, 'distance_accuracy_value', 'NONE');
#154 =( LENGTH_UNIT ( ) NAMED_UNIT ( * ) SI_UNIT ( .MILLI., .METRE. ) );
#155 = SURFACE_STYLE_USAGE ( .BOTH. , #69 ) ;
#156 = CARTESIAN_POINT ( 'NONE',  ( 681.4103454351834400, 68.03616460286244200, 0.0000000000000000000 ) ) ;
#157 = CIRCLE ( 'NONE', #126, 21.71951219512203900 ) ;
#158 = DIRECTION ( 'NONE',  ( 0.0000000000000000000, 0.0000000000000000000, 1.000000000000000000 ) ) ;
#159 = VERTEX_POINT ( 'NONE', #65 ) ;
#160 = ORIENTED_EDGE ( 'NONE', *, *, #4, .F. ) ;
#161 = VERTEX_POINT ( 'NONE', #124 ) ;
#162 = APPLICATION_CONTEXT ( 'automotive_design' ) ;
#163 = ORIENTED_EDGE ( 'NONE', *, *, #108, .F. ) ;
#164 = CARTESIAN_POINT ( 'NONE',  ( 663.7908332400613700, 68.03616460286239900, 0.0000000000000000000 ) ) ;
#165 = DIRECTION ( 'NONE',  ( 0.0000000000000000000, 0.0000000000000000000, 1.000000000000000000 ) ) ;
#166 =( NAMED_UNIT ( * ) PLANE_ANGLE_UNIT ( ) SI_UNIT ( $, .RADIAN. ) );
#167 = CARTESIAN_POINT ( 'NONE',  ( 663.7908332400613700, 68.03616460286239900, 0.0000000000000000000 ) ) ;
#168 = ORIENTED_EDGE ( 'NONE', *, *, #84, .T. ) ;
#169 = DIRECTION ( 'NONE',  ( -1.000000000000000000, -0.0000000000000000000, -0.0000000000000000000 ) ) ;
#170 = CARTESIAN_POINT ( 'NONE',  ( 679.4103454351834400, 68.03616460286244200, -12.70000000000000300 ) ) ;
#171 = FACE_OUTER_BOUND ( 'NONE', #76, .T. ) ;
#172 = EDGE_LOOP ( 'NONE', ( #90, #168, #17, #43 ) ) ;
#173 = ORIENTED_EDGE ( 'NONE', *, *, #4, .T. ) ;
#174 = MANIFOLD_SOLID_BREP ( 'Ðý×ª1', #47 ) ;
#175 = PRODUCT_DEFINITION_CONTEXT ( 'detailed design', #162, 'design' ) ;
#176 = CIRCLE ( 'NONE', #105, 12.70000000000000300 ) ;
#177 = PRODUCT ( '100447', '100447', '', ( #139 ) ) ;
#178 = APPLICATION_PROTOCOL_DEFINITION ( 'draft international standard', 'automotive_design', 1998, #38 ) ;
#179 = PRODUCT_RELATED_PRODUCT_CATEGORY ( 'part', '', ( #177 ) ) ;
#180 = CARTESIAN_POINT ( 'NONE',  ( 685.5103454351833500, 68.03616460286239900, 0.0000000000000000000 ) ) ;
#181 = DIRECTION ( 'NONE',  ( 1.000000000000000000, 0.0000000000000000000, 0.0000000000000000000 ) ) ;
#182 = UNCERTAINTY_MEASURE_WITH_UNIT (LENGTH_MEASURE( 1.000000000000000100E-005 ), #154, 'distance_accuracy_value', 'NONE');
#183 =( NAMED_UNIT ( * ) PLANE_ANGLE_UNIT ( ) SI_UNIT ( $, .RADIAN. ) );
#184 = FACE_OUTER_BOUND ( 'NONE', #172, .T. ) ;
#185 = CYLINDRICAL_SURFACE ( 'NONE', #61, 12.70000000000000300 ) ;
#186 = ADVANCED_FACE ( 'NONE', ( #152 ), #24, .T. ) ;
ENDSEC;
END-ISO-10303-21;
