ISO-10303-21;
HEADER;
FILE_DESCRIPTION (( 'STEP AP214' ),
    '1' );
FILE_NAME ('100348.STEP',
    '2019-06-03T02:57:09',
    ( '' ),
    ( '' ),
    'SwSTEP 2.0',
    'SolidWorks 2016',
    '' );
FILE_SCHEMA (( 'AUTOMOTIVE_DESIGN' ));
ENDSEC;

DATA;
#1 = STYLED_ITEM ( 'NONE', ( #40 ), #72 ) ;
#2 = EDGE_CURVE ( 'NONE', #24, #146, #99, .T. ) ;
#3 = EDGE_LOOP ( 'NONE', ( #163, #177 ) ) ;
#4 = AXIS2_PLACEMENT_3D ( 'NONE', #13, #155, #106 ) ;
#5 = DIRECTION ( 'NONE',  ( 0.0000000000000000000, 0.0000000000000000000, 1.000000000000000000 ) ) ;
#6 = CARTESIAN_POINT ( 'NONE',  ( 701.2057577353545000, 219.5476155129765900, 0.0000000000000000000 ) ) ;
#7 = EDGE_LOOP ( 'NONE', ( #59, #38, #144, #125, #131 ) ) ;
#8 = DIRECTION ( 'NONE',  ( 0.0000000000000000000, 0.0000000000000000000, 1.000000000000000000 ) ) ;
#9 = DIRECTION ( 'NONE',  ( -1.000000000000000000, -0.0000000000000000000, -0.0000000000000000000 ) ) ;
#10 = FILL_AREA_STYLE_COLOUR ( '', #21 ) ;
#11 = LINE ( 'NONE', #80, #62 ) ;
#12 = ORIENTED_EDGE ( 'NONE', *, *, #130, .F. ) ;
#13 = CARTESIAN_POINT ( 'NONE',  ( 701.6338644294012300, 219.5476155129765900, 0.0000000000000000000 ) ) ;
#14 =( NAMED_UNIT ( * ) PLANE_ANGLE_UNIT ( ) SI_UNIT ( $, .RADIAN. ) );
#15 = SURFACE_STYLE_USAGE ( .BOTH. , #85 ) ;
#16 = CIRCLE ( 'NONE', #52, 2.000000000000001800 ) ;
#17 = ORIENTED_EDGE ( 'NONE', *, *, #2, .F. ) ;
#18 = APPLICATION_CONTEXT ( 'automotive_design' ) ;
#19 = EDGE_CURVE ( 'NONE', #158, #49, #11, .T. ) ;
#20 =( NAMED_UNIT ( * ) PLANE_ANGLE_UNIT ( ) SI_UNIT ( $, .RADIAN. ) );
#21 = COLOUR_RGB ( '',1.000000000000000000, 1.000000000000000000, 1.000000000000000000 ) ;
#22 = UNCERTAINTY_MEASURE_WITH_UNIT (LENGTH_MEASURE( 1.000000000000000100E-005 ), #51, 'distance_accuracy_value', 'NONE');
#23 = CIRCLE ( 'NONE', #148, 2.000000000000001800 ) ;
#24 = VERTEX_POINT ( 'NONE', #100 ) ;
#25 = STYLED_ITEM ( 'NONE', ( #113 ), #127 ) ;
#26 = LINE ( 'NONE', #45, #150 ) ;
#27 = DIRECTION ( 'NONE',  ( -1.000000000000000000, -0.0000000000000000000, -0.0000000000000000000 ) ) ;
#28 = DIRECTION ( 'NONE',  ( 0.0000000000000000000, 0.0000000000000000000, 1.000000000000000000 ) ) ;
#29 = DIRECTION ( 'NONE',  ( 0.0000000000000000000, -1.000000000000000000, 0.0000000000000000000 ) ) ;
#30 = AXIS2_PLACEMENT_3D ( 'NONE', #6, #147, #61 ) ;
#31 = DIRECTION ( 'NONE',  ( -1.000000000000000000, -0.0000000000000000000, -0.0000000000000000000 ) ) ;
#32 =( NAMED_UNIT ( * ) SI_UNIT ( $, .STERADIAN. ) SOLID_ANGLE_UNIT ( ) );
#33 = DIRECTION ( 'NONE',  ( 0.0000000000000000000, 0.0000000000000000000, 1.000000000000000000 ) ) ;
#34 = PRODUCT_RELATED_PRODUCT_CATEGORY ( 'part', '', ( #182 ) ) ;
#35 = CARTESIAN_POINT ( 'NONE',  ( 703.1338644294013400, 219.5476155129765900, 0.0000000000000000000 ) ) ;
#36 =( LENGTH_UNIT ( ) NAMED_UNIT ( * ) SI_UNIT ( .MILLI., .METRE. ) );
#37 = APPLICATION_PROTOCOL_DEFINITION ( 'draft international standard', 'automotive_design', 1998, #18 ) ;
#38 = ORIENTED_EDGE ( 'NONE', *, *, #167, .T. ) ;
#39 =( GEOMETRIC_REPRESENTATION_CONTEXT ( 3 ) GLOBAL_UNCERTAINTY_ASSIGNED_CONTEXT ( ( #22 ) ) GLOBAL_UNIT_ASSIGNED_CONTEXT ( ( #51, #14, #32 ) ) REPRESENTATION_CONTEXT ( 'NONE', 'WORKASPACE' ) );
#40 = PRESENTATION_STYLE_ASSIGNMENT (( #66 ) ) ;
#41 = CIRCLE ( 'NONE', #132, 9.200909090909092900 ) ;
#42 = CARTESIAN_POINT ( 'NONE',  ( 703.1338644294013400, 221.5476155129765900, 2.449293598294681800E-016 ) ) ;
#43 = ADVANCED_FACE ( 'NONE', ( #68 ), #107, .T. ) ;
#44 = CARTESIAN_POINT ( 'NONE',  ( 701.6338644294012300, 219.5476155129765900, -2.000000000000001800 ) ) ;
#45 = CARTESIAN_POINT ( 'NONE',  ( 701.2057577353545000, 219.5476155129765900, -2.000000000000001800 ) ) ;
#46 = DIRECTION ( 'NONE',  ( 1.000000000000000000, 0.0000000000000000000, 0.0000000000000000000 ) ) ;
#47 = APPLICATION_CONTEXT ( 'automotive_design' ) ;
#48 = PRESENTATION_LAYER_ASSIGNMENT (  '', '', ( #1 ) ) ;
#49 = VERTEX_POINT ( 'NONE', #145 ) ;
#50 = ORIENTED_EDGE ( 'NONE', *, *, #162, .F. ) ;
#51 =( LENGTH_UNIT ( ) NAMED_UNIT ( * ) SI_UNIT ( .MILLI., .METRE. ) );
#52 = AXIS2_PLACEMENT_3D ( 'NONE', #102, #31, #53 ) ;
#53 = DIRECTION ( 'NONE',  ( 0.0000000000000000000, 0.0000000000000000000, 1.000000000000000000 ) ) ;
#54 = CARTESIAN_POINT ( 'NONE',  ( 701.6338644294012300, 219.5476155129765900, 0.0000000000000000000 ) ) ;
#55 = AXIS2_PLACEMENT_3D ( 'NONE', #168, #81, #82 ) ;
#56 = CIRCLE ( 'NONE', #78, 2.000000000000001800 ) ;
#57 = ORIENTED_EDGE ( 'NONE', *, *, #58, .F. ) ;
#58 = EDGE_CURVE ( 'NONE', #158, #146, #129, .T. ) ;
#59 = ORIENTED_EDGE ( 'NONE', *, *, #118, .T. ) ;
#60 = UNCERTAINTY_MEASURE_WITH_UNIT (LENGTH_MEASURE( 1.000000000000000100E-005 ), #36, 'distance_accuracy_value', 'NONE');
#61 = DIRECTION ( 'NONE',  ( 0.0000000000000000000, 0.0000000000000000000, 1.000000000000000000 ) ) ;
#62 = VECTOR ( 'NONE', #79, 1000.000000000000000 ) ;
#63 = DIRECTION ( 'NONE',  ( -1.000000000000000000, -0.0000000000000000000, -0.0000000000000000000 ) ) ;
#64 = FACE_OUTER_BOUND ( 'NONE', #115, .T. ) ;
#65 = ADVANCED_FACE ( 'NONE', ( #180 ), #94, .T. ) ;
#66 = SURFACE_STYLE_USAGE ( .BOTH. , #169 ) ;
#67 = DIRECTION ( 'NONE',  ( -1.000000000000000000, 0.0000000000000000000, 0.0000000000000000000 ) ) ;
#68 = FACE_OUTER_BOUND ( 'NONE', #77, .T. ) ;
#69 = ORIENTED_EDGE ( 'NONE', *, *, #167, .F. ) ;
#70 =( NAMED_UNIT ( * ) PLANE_ANGLE_UNIT ( ) SI_UNIT ( $, .RADIAN. ) );
#71 = FILL_AREA_STYLE ('',( #10 ) ) ;
#72 = MANIFOLD_SOLID_BREP ( 'Ðý×ª1', #119 ) ;
#73 = EDGE_CURVE ( 'NONE', #76, #75, #160, .T. ) ;
#74 = FACE_OUTER_BOUND ( 'NONE', #97, .T. ) ;
#75 = VERTEX_POINT ( 'NONE', #164 ) ;
#76 = VERTEX_POINT ( 'NONE', #116 ) ;
#77 = EDGE_LOOP ( 'NONE', ( #50, #86, #57, #12 ) ) ;
#78 = AXIS2_PLACEMENT_3D ( 'NONE', #35, #123, #120 ) ;
#79 = DIRECTION ( 'NONE',  ( -1.000000000000000000, -0.0000000000000000000, -0.0000000000000000000 ) ) ;
#80 = CARTESIAN_POINT ( 'NONE',  ( 701.2057577353545000, 219.5476155129765900, 2.000000000000001800 ) ) ;
#81 = DIRECTION ( 'NONE',  ( -1.000000000000000000, -0.0000000000000000000, -0.0000000000000000000 ) ) ;
#82 = DIRECTION ( 'NONE',  ( 0.0000000000000000000, 0.0000000000000000000, 1.000000000000000000 ) ) ;
#83 = PRODUCT_CONTEXT ( 'NONE', #47, 'mechanical' ) ;
#84 = COLOUR_RGB ( '',1.000000000000000000, 1.000000000000000000, 1.000000000000000000 ) ;
#85 = SURFACE_SIDE_STYLE ('',( #143 ) ) ;
#86 = ORIENTED_EDGE ( 'NONE', *, *, #2, .T. ) ;
#87 = PRODUCT_DEFINITION_CONTEXT ( 'detailed design', #18, 'design' ) ;
#88 = ORIENTED_EDGE ( 'NONE', *, *, #162, .T. ) ;
#89 = DIRECTION ( 'NONE',  ( 0.0000000000000000000, -1.000000000000000000, -1.224646799147353000E-016 ) ) ;
#90 = CIRCLE ( 'NONE', #4, 2.000000000000001800 ) ;
#91 = CARTESIAN_POINT ( 'NONE',  ( 703.1338644294013400, 219.5476155129765900, 2.000000000000001800 ) ) ;
#92 = CARTESIAN_POINT ( 'NONE',  ( 701.2057577353545000, 219.5476155129765900, 0.0000000000000000000 ) ) ;
#93 = DIRECTION ( 'NONE',  ( 0.0000000000000000000, 0.0000000000000000000, 1.000000000000000000 ) ) ;
#94 = CYLINDRICAL_SURFACE ( 'NONE', #30, 2.000000000000001800 ) ;
#95 = ORIENTED_EDGE ( 'NONE', *, *, #73, .T. ) ;
#96 = FACE_OUTER_BOUND ( 'NONE', #3, .T. ) ;
#97 = EDGE_LOOP ( 'NONE', ( #69, #95, #103, #175, #128 ) ) ;
#98 = PRODUCT_DEFINITION_SHAPE ( 'NONE', 'NONE',  #141 ) ;
#99 = CIRCLE ( 'NONE', #176, 9.200909090909092900 ) ;
#100 = CARTESIAN_POINT ( 'NONE',  ( 703.3538644294012600, 219.5476155129766200, 0.0000000000000000000 ) ) ;
#101 = DIRECTION ( 'NONE',  ( 0.0000000000000000000, -1.224646799147353200E-016, 1.000000000000000000 ) ) ;
#102 = CARTESIAN_POINT ( 'NONE',  ( 701.6338644294012300, 219.5476155129765900, 0.0000000000000000000 ) ) ;
#103 = ORIENTED_EDGE ( 'NONE', *, *, #130, .T. ) ;
#104 = DIRECTION ( 'NONE',  ( 0.0000000000000000000, 0.0000000000000000000, -1.000000000000000000 ) ) ;
#105 = PLANE ( 'NONE',  #183 ) ;
#106 = DIRECTION ( 'NONE',  ( 0.0000000000000000000, 0.0000000000000000000, 1.000000000000000000 ) ) ;
#107 = SPHERICAL_SURFACE ( 'NONE', #173, 9.200909090909091100 ) ;
#108 =( NAMED_UNIT ( * ) SI_UNIT ( $, .STERADIAN. ) SOLID_ANGLE_UNIT ( ) );
#109 = UNCERTAINTY_MEASURE_WITH_UNIT (LENGTH_MEASURE( 1.000000000000000100E-005 ), #137, 'distance_accuracy_value', 'NONE');
#110 = EDGE_CURVE ( 'NONE', #111, #49, #90, .T. ) ;
#111 = VERTEX_POINT ( 'NONE', #44 ) ;
#112 =( GEOMETRIC_REPRESENTATION_CONTEXT ( 3 ) GLOBAL_UNCERTAINTY_ASSIGNED_CONTEXT ( ( #109 ) ) GLOBAL_UNIT_ASSIGNED_CONTEXT ( ( #137, #70, #124 ) ) REPRESENTATION_CONTEXT ( 'NONE', 'WORKASPACE' ) );
#113 = PRESENTATION_STYLE_ASSIGNMENT (( #15 ) ) ;
#114 = MECHANICAL_DESIGN_GEOMETRIC_PRESENTATION_REPRESENTATION (  '', ( #1 ), #39 ) ;
#115 = EDGE_LOOP ( 'NONE', ( #17, #88, #154, #136 ) ) ;
#116 = CARTESIAN_POINT ( 'NONE',  ( 703.1338644294013400, 219.5476155129765900, -2.000000000000001800 ) ) ;
#117 = CARTESIAN_POINT ( 'NONE',  ( 703.1338644294013400, 219.5476155129765900, 0.0000000000000000000 ) ) ;
#118 = EDGE_CURVE ( 'NONE', #146, #76, #23, .T. ) ;
#119 = CLOSED_SHELL ( 'NONE', ( #65, #43, #152, #166, #159 ) ) ;
#120 = DIRECTION ( 'NONE',  ( 0.0000000000000000000, 0.0000000000000000000, 1.000000000000000000 ) ) ;
#121 = DIRECTION ( 'NONE',  ( 0.0000000000000000000, 0.0000000000000000000, -1.000000000000000000 ) ) ;
#122 = AXIS2_PLACEMENT_3D ( 'NONE', #153, #93, #149 ) ;
#123 = DIRECTION ( 'NONE',  ( -1.000000000000000000, -0.0000000000000000000, -0.0000000000000000000 ) ) ;
#124 =( NAMED_UNIT ( * ) SI_UNIT ( $, .STERADIAN. ) SOLID_ANGLE_UNIT ( ) );
#125 = ORIENTED_EDGE ( 'NONE', *, *, #19, .F. ) ;
#126 = AXIS2_PLACEMENT_3D ( 'NONE', #92, #63, #8 ) ;
#127 = ADVANCED_BREP_SHAPE_REPRESENTATION ( '100348', ( #72, #179 ), #112 ) ;
#128 = ORIENTED_EDGE ( 'NONE', *, *, #110, .F. ) ;
#129 = CIRCLE ( 'NONE', #139, 2.000000000000001800 ) ;
#130 = EDGE_CURVE ( 'NONE', #75, #158, #56, .T. ) ;
#131 = ORIENTED_EDGE ( 'NONE', *, *, #58, .T. ) ;
#132 = AXIS2_PLACEMENT_3D ( 'NONE', #138, #121, #67 ) ;
#133 = CARTESIAN_POINT ( 'NONE',  ( 694.1529553384922300, 219.5476155129766200, 0.0000000000000000000 ) ) ;
#134 = PRESENTATION_LAYER_ASSIGNMENT (  '', '', ( #25 ) ) ;
#135 = CARTESIAN_POINT ( 'NONE',  ( 694.1529553384922300, 219.5476155129766200, 0.0000000000000000000 ) ) ;
#136 = ORIENTED_EDGE ( 'NONE', *, *, #118, .F. ) ;
#137 =( LENGTH_UNIT ( ) NAMED_UNIT ( * ) SI_UNIT ( .MILLI., .METRE. ) );
#138 = CARTESIAN_POINT ( 'NONE',  ( 694.1529553384922300, 219.5476155129766200, 0.0000000000000000000 ) ) ;
#139 = AXIS2_PLACEMENT_3D ( 'NONE', #117, #27, #5 ) ;
#140 = CYLINDRICAL_SURFACE ( 'NONE', #126, 2.000000000000001800 ) ;
#141 = PRODUCT_DEFINITION ( 'Î´Öª', '', #161, #87 ) ;
#142 = MECHANICAL_DESIGN_GEOMETRIC_PRESENTATION_REPRESENTATION (  '', ( #25 ), #156 ) ;
#143 = SURFACE_STYLE_FILL_AREA ( #71 ) ;
#144 = ORIENTED_EDGE ( 'NONE', *, *, #178, .F. ) ;
#145 = CARTESIAN_POINT ( 'NONE',  ( 701.6338644294012300, 219.5476155129765900, 2.000000000000001800 ) ) ;
#146 = VERTEX_POINT ( 'NONE', #42 ) ;
#147 = DIRECTION ( 'NONE',  ( -1.000000000000000000, -0.0000000000000000000, -0.0000000000000000000 ) ) ;
#148 = AXIS2_PLACEMENT_3D ( 'NONE', #184, #186, #33 ) ;
#149 = DIRECTION ( 'NONE',  ( 0.0000000000000000000, -1.000000000000000000, 0.0000000000000000000 ) ) ;
#150 = VECTOR ( 'NONE', #9, 1000.000000000000000 ) ;
#151 = FILL_AREA_STYLE ('',( #181 ) ) ;
#152 = ADVANCED_FACE ( 'NONE', ( #64 ), #174, .T. ) ;
#153 = CARTESIAN_POINT ( 'NONE',  ( 694.1529553384922300, 219.5476155129766200, 0.0000000000000000000 ) ) ;
#154 = ORIENTED_EDGE ( 'NONE', *, *, #73, .F. ) ;
#155 = DIRECTION ( 'NONE',  ( -1.000000000000000000, -0.0000000000000000000, -0.0000000000000000000 ) ) ;
#156 =( GEOMETRIC_REPRESENTATION_CONTEXT ( 3 ) GLOBAL_UNCERTAINTY_ASSIGNED_CONTEXT ( ( #60 ) ) GLOBAL_UNIT_ASSIGNED_CONTEXT ( ( #36, #20, #108 ) ) REPRESENTATION_CONTEXT ( 'NONE', 'WORKASPACE' ) );
#157 = DIRECTION ( 'NONE',  ( 1.000000000000000000, 0.0000000000000000000, 0.0000000000000000000 ) ) ;
#158 = VERTEX_POINT ( 'NONE', #91 ) ;
#159 = ADVANCED_FACE ( 'NONE', ( #96 ), #105, .F. ) ;
#160 = CIRCLE ( 'NONE', #55, 2.000000000000001800 ) ;
#161 = PRODUCT_DEFINITION_FORMATION_WITH_SPECIFIED_SOURCE ( 'ÈÎºÎ', '', #182, .NOT_KNOWN. ) ;
#162 = EDGE_CURVE ( 'NONE', #24, #75, #41, .T. ) ;
#163 = ORIENTED_EDGE ( 'NONE', *, *, #178, .T. ) ;
#164 = CARTESIAN_POINT ( 'NONE',  ( 703.1338644294013400, 217.5476155129765900, 0.0000000000000000000 ) ) ;
#165 = CARTESIAN_POINT ( 'NONE',  ( 0.0000000000000000000, 0.0000000000000000000, 0.0000000000000000000 ) ) ;
#166 = ADVANCED_FACE ( 'NONE', ( #74 ), #140, .T. ) ;
#167 = EDGE_CURVE ( 'NONE', #76, #111, #26, .T. ) ;
#168 = CARTESIAN_POINT ( 'NONE',  ( 703.1338644294013400, 219.5476155129765900, 0.0000000000000000000 ) ) ;
#169 = SURFACE_SIDE_STYLE ('',( #170 ) ) ;
#170 = SURFACE_STYLE_FILL_AREA ( #151 ) ;
#171 = APPLICATION_PROTOCOL_DEFINITION ( 'draft international standard', 'automotive_design', 1998, #47 ) ;
#172 = DIRECTION ( 'NONE',  ( 0.0000000000000000000, 0.0000000000000000000, 1.000000000000000000 ) ) ;
#173 = AXIS2_PLACEMENT_3D ( 'NONE', #135, #28, #29 ) ;
#174 = SPHERICAL_SURFACE ( 'NONE', #122, 9.200909090909091100 ) ;
#175 = ORIENTED_EDGE ( 'NONE', *, *, #19, .T. ) ;
#176 = AXIS2_PLACEMENT_3D ( 'NONE', #133, #101, #89 ) ;
#177 = ORIENTED_EDGE ( 'NONE', *, *, #110, .T. ) ;
#178 = EDGE_CURVE ( 'NONE', #49, #111, #16, .T. ) ;
#179 = AXIS2_PLACEMENT_3D ( 'NONE', #165, #172, #157 ) ;
#180 = FACE_OUTER_BOUND ( 'NONE', #7, .T. ) ;
#181 = FILL_AREA_STYLE_COLOUR ( '', #84 ) ;
#182 = PRODUCT ( '100348', '100348', '', ( #83 ) ) ;
#183 = AXIS2_PLACEMENT_3D ( 'NONE', #54, #46, #104 ) ;
#184 = CARTESIAN_POINT ( 'NONE',  ( 703.1338644294013400, 219.5476155129765900, 0.0000000000000000000 ) ) ;
#185 = SHAPE_DEFINITION_REPRESENTATION ( #98, #127 ) ;
#186 = DIRECTION ( 'NONE',  ( -1.000000000000000000, -0.0000000000000000000, -0.0000000000000000000 ) ) ;
ENDSEC;
END-ISO-10303-21;
