ISO-10303-21;
HEADER;
FILE_DESCRIPTION (( 'STEP AP214' ),
    '1' );
FILE_NAME ('100152.STEP',
    '2019-05-16T01:50:10',
    ( '' ),
    ( '' ),
    'SwSTEP 2.0',
    'SolidWorks 2016',
    '' );
FILE_SCHEMA (( 'AUTOMOTIVE_DESIGN' ));
ENDSEC;

DATA;
#1 = TOROIDAL_SURFACE ( 'NONE', #127, -0.04568034216713248000, 32.50609121909635500 ) ;
#2 = MECHANICAL_DESIGN_GEOMETRIC_PRESENTATION_REPRESENTATION (  '', ( #159 ), #11 ) ;
#3 = EDGE_CURVE ( 'NONE', #48, #85, #134, .T. ) ;
#4 = DIRECTION ( 'NONE',  ( 7.381248390281312200E-016, 1.000000000000000000, 1.224642755551623300E-016 ) ) ;
#5 = DIRECTION ( 'NONE',  ( 0.9999966981535144400, -0.002569763037560800500, -0.0000000000000000000 ) ) ;
#6 = DIRECTION ( 'NONE',  ( 0.9999966981535144400, -0.002569763037560800500, -0.0000000000000000000 ) ) ;
#7 = CARTESIAN_POINT ( 'NONE',  ( 452.7393602877409600, -29.23137686577768700, 0.0000000000000000000 ) ) ;
#8 = EDGE_CURVE ( 'NONE', #169, #57, #73, .T. ) ;
#9 = PRODUCT_CONTEXT ( 'NONE', #142, 'mechanical' ) ;
#10 = DIRECTION ( 'NONE',  ( 0.002569763037561778900, 0.9999966981535142200, 0.0000000000000000000 ) ) ;
#11 =( GEOMETRIC_REPRESENTATION_CONTEXT ( 3 ) GLOBAL_UNCERTAINTY_ASSIGNED_CONTEXT ( ( #131 ) ) GLOBAL_UNIT_ASSIGNED_CONTEXT ( ( #182, #23, #120 ) ) REPRESENTATION_CONTEXT ( 'NONE', 'WORKASPACE' ) );
#12 = VERTEX_POINT ( 'NONE', #99 ) ;
#13 = VECTOR ( 'NONE', #109, 1000.000000000000000 ) ;
#14 = PRODUCT ( '100152', '100152', '', ( #9 ) ) ;
#15 = AXIS2_PLACEMENT_3D ( 'NONE', #36, #181, #155 ) ;
#16 = ADVANCED_FACE ( 'NONE', ( #153 ), #1, .T. ) ;
#17 = EDGE_CURVE ( 'NONE', #85, #12, #133, .T. ) ;
#18 = ADVANCED_FACE ( 'NONE', ( #170 ), #173, .F. ) ;
#19 = DIRECTION ( 'NONE',  ( 1.000000000000000000, 1.484489614567152300E-015, 0.0000000000000000000 ) ) ;
#20 = ORIENTED_EDGE ( 'NONE', *, *, #8, .F. ) ;
#21 = CARTESIAN_POINT ( 'NONE',  ( 449.6751362349722900, -54.22350251006815800, 0.0000000000000000000 ) ) ;
#22 = ADVANCED_BREP_SHAPE_REPRESENTATION ( '100152', ( #171, #149 ), #123 ) ;
#23 =( NAMED_UNIT ( * ) PLANE_ANGLE_UNIT ( ) SI_UNIT ( $, .RADIAN. ) );
#24 = EDGE_CURVE ( 'NONE', #48, #12, #68, .T. ) ;
#25 = CIRCLE ( 'NONE', #92, 32.50609121909636900 ) ;
#26 = DIRECTION ( 'NONE',  ( 0.002569763037560800500, 0.9999966981535143300, 0.0000000000000000000 ) ) ;
#27 = FACE_OUTER_BOUND ( 'NONE', #29, .T. ) ;
#28 = ORIENTED_EDGE ( 'NONE', *, *, #8, .T. ) ;
#29 = EDGE_LOOP ( 'NONE', ( #20, #130, #147 ) ) ;
#30 = COLOUR_RGB ( '',1.000000000000000000, 1.000000000000000000, 1.000000000000000000 ) ;
#31 = SURFACE_STYLE_FILL_AREA ( #54 ) ;
#32 = PRODUCT_DEFINITION_FORMATION_WITH_SPECIFIED_SOURCE ( 'ÈÎºÎ', '', #14, .NOT_KNOWN. ) ;
#33 = FACE_OUTER_BOUND ( 'NONE', #34, .T. ) ;
#34 = EDGE_LOOP ( 'NONE', ( #124, #96, #141, #165 ) ) ;
#35 = UNCERTAINTY_MEASURE_WITH_UNIT (LENGTH_MEASURE( 1.000000000000000100E-005 ), #103, 'distance_accuracy_value', 'NONE');
#36 = CARTESIAN_POINT ( 'NONE',  ( 449.7393800987872500, -29.22366760211988900, 0.0000000000000000000 ) ) ;
#37 = AXIS2_PLACEMENT_3D ( 'NONE', #107, #89, #26 ) ;
#38 = CARTESIAN_POINT ( 'NONE',  ( 432.0277675188154400, -29.13247231149629700, -5.594228481893467300E-018 ) ) ;
#39 = SURFACE_SIDE_STYLE ('',( #158 ) ) ;
#40 = CARTESIAN_POINT ( 'NONE',  ( 452.7393602877409600, -29.23137686577768700, 0.0000000000000000000 ) ) ;
#41 = VECTOR ( 'NONE', #62, 1000.000000000000000 ) ;
#42 = DIRECTION ( 'NONE',  ( 1.000000000000000000, 0.0000000000000000000, 0.0000000000000000000 ) ) ;
#43 = CARTESIAN_POINT ( 'NONE',  ( 452.7393602877409600, -29.23137686577768700, 0.0000000000000000000 ) ) ;
#44 = AXIS2_PLACEMENT_3D ( 'NONE', #7, #6, #136 ) ;
#45 = PRESENTATION_STYLE_ASSIGNMENT (( #75 ) ) ;
#46 = ORIENTED_EDGE ( 'NONE', *, *, #3, .F. ) ;
#47 = CARTESIAN_POINT ( 'NONE',  ( 464.5336019232603900, -29.26168537206273600, 0.0000000000000000000 ) ) ;
#48 = VERTEX_POINT ( 'NONE', #178 ) ;
#49 = FILL_AREA_STYLE_COLOUR ( '', #137 ) ;
#50 = DIRECTION ( 'NONE',  ( 0.9999966981535144400, -0.002569763037560800500, -0.0000000000000000000 ) ) ;
#51 = APPLICATION_PROTOCOL_DEFINITION ( 'draft international standard', 'automotive_design', 1998, #142 ) ;
#52 = FACE_OUTER_BOUND ( 'NONE', #87, .T. ) ;
#53 = ORIENTED_EDGE ( 'NONE', *, *, #125, .T. ) ;
#54 = FILL_AREA_STYLE ('',( #49 ) ) ;
#55 = MECHANICAL_DESIGN_GEOMETRIC_PRESENTATION_REPRESENTATION (  '', ( #129 ), #183 ) ;
#56 = LINE ( 'NONE', #122, #13 ) ;
#57 = VERTEX_POINT ( 'NONE', #47 ) ;
#58 = VECTOR ( 'NONE', #4, 1000.000000000000000 ) ;
#59 = TOROIDAL_SURFACE ( 'NONE', #37, -0.04568034216713248000, 32.50609121909635500 ) ;
#60 = PRODUCT_DEFINITION_CONTEXT ( 'detailed design', #157, 'design' ) ;
#61 = ORIENTED_EDGE ( 'NONE', *, *, #3, .T. ) ;
#62 = DIRECTION ( 'NONE',  ( -0.005139509105194752700, -0.9999867926358615400, 0.0000000000000000000 ) ) ;
#63 = DIRECTION ( 'NONE',  ( -0.002569763037560169000, -0.9999966981535143300, 0.0000000000000000000 ) ) ;
#64 = CARTESIAN_POINT ( 'NONE',  ( 432.0275327435057900, -29.22383269417161200, 0.0000000000000000000 ) ) ;
#65 = DIRECTION ( 'NONE',  ( 0.0000000000000000000, 0.0000000000000000000, 1.000000000000000000 ) ) ;
#66 = APPLICATION_PROTOCOL_DEFINITION ( 'draft international standard', 'automotive_design', 1998, #157 ) ;
#67 = SURFACE_STYLE_USAGE ( .BOTH. , #185 ) ;
#68 = LINE ( 'NONE', #21, #41 ) ;
#69 = SHAPE_DEFINITION_REPRESENTATION ( #140, #22 ) ;
#70 = ADVANCED_FACE ( 'NONE', ( #33 ), #98, .T. ) ;
#71 = DIRECTION ( 'NONE',  ( 3.147052078516014200E-019, 1.224642755551623300E-016, 1.000000000000000000 ) ) ;
#72 = UNCERTAINTY_MEASURE_WITH_UNIT (LENGTH_MEASURE( 1.000000000000000100E-005 ), #187, 'distance_accuracy_value', 'NONE');
#73 = CIRCLE ( 'NONE', #95, 32.50609121909635500 ) ;
#74 = CARTESIAN_POINT ( 'NONE',  ( 452.8036239626021000, -4.223832694171577800, 0.0000000000000000000 ) ) ;
#75 = SURFACE_STYLE_USAGE ( .BOTH. , #39 ) ;
#76 = CARTESIAN_POINT ( 'NONE',  ( 0.0000000000000000000, 0.0000000000000000000, 0.0000000000000000000 ) ) ;
#77 = CARTESIAN_POINT ( 'NONE',  ( 452.6750966128798300, -54.23892103738376800, 3.062551004502615600E-015 ) ) ;
#78 = DIRECTION ( 'NONE',  ( 0.002569763037561779300, 0.9999966981535142200, 0.0000000000000000000 ) ) ;
#79 = EDGE_LOOP ( 'NONE', ( #88, #28, #175 ) ) ;
#80 = ORIENTED_EDGE ( 'NONE', *, *, #17, .F. ) ;
#81 = ORIENTED_EDGE ( 'NONE', *, *, #162, .F. ) ;
#82 = CARTESIAN_POINT ( 'NONE',  ( 449.7393800987872500, -29.22366760211988900, 0.0000000000000000000 ) ) ;
#83 = CARTESIAN_POINT ( 'NONE',  ( 452.7393602877409600, -29.23137686577768700, 0.0000000000000000000 ) ) ;
#84 = AXIS2_PLACEMENT_3D ( 'NONE', #117, #91, #63 ) ;
#85 = VERTEX_POINT ( 'NONE', #101 ) ;
#86 =( NAMED_UNIT ( * ) SI_UNIT ( $, .STERADIAN. ) SOLID_ANGLE_UNIT ( ) );
#87 = EDGE_LOOP ( 'NONE', ( #46, #94, #80 ) ) ;
#88 = ORIENTED_EDGE ( 'NONE', *, *, #108, .T. ) ;
#89 = DIRECTION ( 'NONE',  ( 0.9999966981535144400, -0.002569763037560800500, -0.0000000000000000000 ) ) ;
#90 = VERTEX_POINT ( 'NONE', #74 ) ;
#91 = DIRECTION ( 'NONE',  ( -0.9999966981535144400, 0.002569763037560800500, 0.0000000000000000000 ) ) ;
#92 = AXIS2_PLACEMENT_3D ( 'NONE', #64, #184, #188 ) ;
#93 = LINE ( 'NONE', #163, #105 ) ;
#94 = ORIENTED_EDGE ( 'NONE', *, *, #24, .T. ) ;
#95 = AXIS2_PLACEMENT_3D ( 'NONE', #38, #71, #150 ) ;
#96 = ORIENTED_EDGE ( 'NONE', *, *, #162, .T. ) ;
#97 = FACE_OUTER_BOUND ( 'NONE', #180, .T. ) ;
#98 = CONICAL_SURFACE ( 'NONE', #44, 25.00762674295054900, 0.002569765865887038200 ) ;
#99 = CARTESIAN_POINT ( 'NONE',  ( 449.6751362349722900, -54.22350251006816500, 3.061606888879058500E-015 ) ) ;
#100 = PRESENTATION_LAYER_ASSIGNMENT (  '', '', ( #159 ) ) ;
#101 = CARTESIAN_POINT ( 'NONE',  ( 449.8036239626021600, -4.223832694171612400, 0.0000000000000000000 ) ) ;
#102 = DIRECTION ( 'NONE',  ( 0.9999966981535144400, -0.002569763037560800500, -0.0000000000000000000 ) ) ;
#103 =( LENGTH_UNIT ( ) NAMED_UNIT ( * ) SI_UNIT ( .MILLI., .METRE. ) );
#104 = CONICAL_SURFACE ( 'NONE', #161, 25.00762674295054900, 0.002569765865887038200 ) ;
#105 = VECTOR ( 'NONE', #19, 1000.000000000000000 ) ;
#106 = FILL_AREA_STYLE ('',( #121 ) ) ;
#107 = CARTESIAN_POINT ( 'NONE',  ( 432.0276501311606100, -29.17815250283395300, 0.0000000000000000000 ) ) ;
#108 = EDGE_CURVE ( 'NONE', #90, #169, #132, .T. ) ;
#109 = DIRECTION ( 'NONE',  ( 0.9999867926358615400, -0.005139509105196975700, 3.147052078517831300E-019 ) ) ;
#110 = AXIS2_PLACEMENT_3D ( 'NONE', #82, #5, #135 ) ;
#111 = AXIS2_PLACEMENT_3D ( 'NONE', #40, #144, #10 ) ;
#112 = PRODUCT_DEFINITION ( 'Î´Öª', '', #32, #60 ) ;
#113 = DIRECTION ( 'NONE',  ( 0.9999966981535144400, -0.002569763037560800500, -0.0000000000000000000 ) ) ;
#114 = EDGE_CURVE ( 'NONE', #12, #85, #146, .T. ) ;
#115 = PRESENTATION_STYLE_ASSIGNMENT (( #67 ) ) ;
#116 = ORIENTED_EDGE ( 'NONE', *, *, #24, .F. ) ;
#117 = CARTESIAN_POINT ( 'NONE',  ( 449.7393800987872500, -29.22366760211988900, 0.0000000000000000000 ) ) ;
#118 = PRODUCT_RELATED_PRODUCT_CATEGORY ( 'part', '', ( #14 ) ) ;
#119 =( NAMED_UNIT ( * ) SI_UNIT ( $, .STERADIAN. ) SOLID_ANGLE_UNIT ( ) );
#120 =( NAMED_UNIT ( * ) SI_UNIT ( $, .STERADIAN. ) SOLID_ANGLE_UNIT ( ) );
#121 = FILL_AREA_STYLE_COLOUR ( '', #30 ) ;
#122 = CARTESIAN_POINT ( 'NONE',  ( 452.6750966128798300, -54.23892103738376100, 3.062551004502613600E-015 ) ) ;
#123 =( GEOMETRIC_REPRESENTATION_CONTEXT ( 3 ) GLOBAL_UNCERTAINTY_ASSIGNED_CONTEXT ( ( #35 ) ) GLOBAL_UNIT_ASSIGNED_CONTEXT ( ( #103, #156, #119 ) ) REPRESENTATION_CONTEXT ( 'NONE', 'WORKASPACE' ) );
#124 = ORIENTED_EDGE ( 'NONE', *, *, #17, .T. ) ;
#125 = EDGE_CURVE ( 'NONE', #85, #90, #93, .T. ) ;
#126 = CLOSED_SHELL ( 'NONE', ( #18, #70, #16, #148, #160, #128 ) ) ;
#127 = AXIS2_PLACEMENT_3D ( 'NONE', #154, #113, #151 ) ;
#128 = ADVANCED_FACE ( 'NONE', ( #52 ), #189, .F. ) ;
#129 = STYLED_ITEM ( 'NONE', ( #115 ), #171 ) ;
#130 = ORIENTED_EDGE ( 'NONE', *, *, #179, .T. ) ;
#131 = UNCERTAINTY_MEASURE_WITH_UNIT (LENGTH_MEASURE( 1.000000000000000100E-005 ), #182, 'distance_accuracy_value', 'NONE');
#132 = CIRCLE ( 'NONE', #167, 25.00762674295055300 ) ;
#133 = CIRCLE ( 'NONE', #110, 24.99991745383786300 ) ;
#134 = LINE ( 'NONE', #176, #58 ) ;
#135 = DIRECTION ( 'NONE',  ( 0.002569763037560168600, 0.9999966981535143300, 0.0000000000000000000 ) ) ;
#136 = DIRECTION ( 'NONE',  ( 0.002569763037561779300, 0.9999966981535142200, 0.0000000000000000000 ) ) ;
#137 = COLOUR_RGB ( '',1.000000000000000000, 1.000000000000000000, 1.000000000000000000 ) ;
#138 = DIRECTION ( 'NONE',  ( 0.002569763037561778900, 0.9999966981535142200, 0.0000000000000000000 ) ) ;
#139 = ORIENTED_EDGE ( 'NONE', *, *, #179, .F. ) ;
#140 = PRODUCT_DEFINITION_SHAPE ( 'NONE', 'NONE',  #112 ) ;
#141 = ORIENTED_EDGE ( 'NONE', *, *, #108, .F. ) ;
#142 = APPLICATION_CONTEXT ( 'automotive_design' ) ;
#143 = EDGE_CURVE ( 'NONE', #90, #57, #25, .T. ) ;
#144 = DIRECTION ( 'NONE',  ( 0.9999966981535144400, -0.002569763037560800500, -0.0000000000000000000 ) ) ;
#145 = PRESENTATION_LAYER_ASSIGNMENT (  '', '', ( #129 ) ) ;
#146 = CIRCLE ( 'NONE', #15, 24.99991745383786300 ) ;
#147 = ORIENTED_EDGE ( 'NONE', *, *, #143, .T. ) ;
#148 = ADVANCED_FACE ( 'NONE', ( #27 ), #59, .T. ) ;
#149 = AXIS2_PLACEMENT_3D ( 'NONE', #76, #65, #42 ) ;
#150 = DIRECTION ( 'NONE',  ( 0.0000000000000000000, -1.000000000000000000, 1.224642755551623300E-016 ) ) ;
#151 = DIRECTION ( 'NONE',  ( 0.002569763037560800500, 0.9999966981535143300, 0.0000000000000000000 ) ) ;
#152 = AXIS2_PLACEMENT_3D ( 'NONE', #164, #177, #174 ) ;
#153 = FACE_OUTER_BOUND ( 'NONE', #79, .T. ) ;
#154 = CARTESIAN_POINT ( 'NONE',  ( 432.0276501311606100, -29.17815250283395300, 0.0000000000000000000 ) ) ;
#155 = DIRECTION ( 'NONE',  ( 0.002569763037560168600, 0.9999966981535143300, 0.0000000000000000000 ) ) ;
#156 =( NAMED_UNIT ( * ) PLANE_ANGLE_UNIT ( ) SI_UNIT ( $, .RADIAN. ) );
#157 = APPLICATION_CONTEXT ( 'automotive_design' ) ;
#158 = SURFACE_STYLE_FILL_AREA ( #106 ) ;
#159 = STYLED_ITEM ( 'NONE', ( #45 ), #22 ) ;
#160 = ADVANCED_FACE ( 'NONE', ( #97 ), #104, .T. ) ;
#161 = AXIS2_PLACEMENT_3D ( 'NONE', #43, #50, #78 ) ;
#162 = EDGE_CURVE ( 'NONE', #12, #169, #56, .T. ) ;
#163 = CARTESIAN_POINT ( 'NONE',  ( 452.8036239626021600, -4.223832694171616000, 0.0000000000000000000 ) ) ;
#164 = CARTESIAN_POINT ( 'NONE',  ( 449.7393800987872500, -29.22366760211988900, 0.0000000000000000000 ) ) ;
#165 = ORIENTED_EDGE ( 'NONE', *, *, #125, .F. ) ;
#166 =( NAMED_UNIT ( * ) PLANE_ANGLE_UNIT ( ) SI_UNIT ( $, .RADIAN. ) );
#167 = AXIS2_PLACEMENT_3D ( 'NONE', #83, #102, #138 ) ;
#168 = EDGE_LOOP ( 'NONE', ( #116, #61, #190 ) ) ;
#169 = VERTEX_POINT ( 'NONE', #77 ) ;
#170 = FACE_OUTER_BOUND ( 'NONE', #168, .T. ) ;
#171 = MANIFOLD_SOLID_BREP ( 'Ðý×ª4', #126 ) ;
#172 = CIRCLE ( 'NONE', #111, 25.00762674295055300 ) ;
#173 = CONICAL_SURFACE ( 'NONE', #152, 24.99991745383785600, 1.568226560929011800 ) ;
#174 = DIRECTION ( 'NONE',  ( -0.002569763037560169000, -0.9999966981535143300, 0.0000000000000000000 ) ) ;
#175 = ORIENTED_EDGE ( 'NONE', *, *, #143, .F. ) ;
#176 = CARTESIAN_POINT ( 'NONE',  ( 449.8036239626021600, -4.223832694171619600, 3.061606888879058500E-015 ) ) ;
#177 = DIRECTION ( 'NONE',  ( -0.9999966981535144400, 0.002569763037560800500, 0.0000000000000000000 ) ) ;
#178 = CARTESIAN_POINT ( 'NONE',  ( 449.8036239626021600, -29.22383269417162000, 0.0000000000000000000 ) ) ;
#179 = EDGE_CURVE ( 'NONE', #169, #90, #172, .T. ) ;
#180 = EDGE_LOOP ( 'NONE', ( #81, #186, #53, #139 ) ) ;
#181 = DIRECTION ( 'NONE',  ( 0.9999966981535144400, -0.002569763037560800500, -0.0000000000000000000 ) ) ;
#182 =( LENGTH_UNIT ( ) NAMED_UNIT ( * ) SI_UNIT ( .MILLI., .METRE. ) );
#183 =( GEOMETRIC_REPRESENTATION_CONTEXT ( 3 ) GLOBAL_UNCERTAINTY_ASSIGNED_CONTEXT ( ( #72 ) ) GLOBAL_UNIT_ASSIGNED_CONTEXT ( ( #187, #166, #86 ) ) REPRESENTATION_CONTEXT ( 'NONE', 'WORKASPACE' ) );
#184 = DIRECTION ( 'NONE',  ( 0.0000000000000000000, 0.0000000000000000000, -1.000000000000000000 ) ) ;
#185 = SURFACE_SIDE_STYLE ('',( #31 ) ) ;
#186 = ORIENTED_EDGE ( 'NONE', *, *, #114, .T. ) ;
#187 =( LENGTH_UNIT ( ) NAMED_UNIT ( * ) SI_UNIT ( .MILLI., .METRE. ) );
#188 = DIRECTION ( 'NONE',  ( -1.000000000000000000, 0.0000000000000000000, 0.0000000000000000000 ) ) ;
#189 = CONICAL_SURFACE ( 'NONE', #84, 24.99991745383785600, 1.568226560929011800 ) ;
#190 = ORIENTED_EDGE ( 'NONE', *, *, #114, .F. ) ;
ENDSEC;
END-ISO-10303-21;
