ISO-10303-21;
HEADER;
FILE_DESCRIPTION (( 'STEP AP214' ),
    '1' );
FILE_NAME ('100147.STEP',
    '2019-05-15T08:12:24',
    ( '' ),
    ( '' ),
    'SwSTEP 2.0',
    'SolidWorks 2016',
    '' );
FILE_SCHEMA (( 'AUTOMOTIVE_DESIGN' ));
ENDSEC;

DATA;
#1 = PRODUCT_RELATED_PRODUCT_CATEGORY ( 'part', '', ( #40 ) ) ;
#2 = EDGE_CURVE ( 'NONE', #31, #103, #132, .T. ) ;
#3 = CARTESIAN_POINT ( 'NONE',  ( 764.1774396366115500, 193.8493915490579400, 0.0000000000000000000 ) ) ;
#4 = DIRECTION ( 'NONE',  ( 0.0000000000000000000, 1.000000000000000000, 0.0000000000000000000 ) ) ;
#5 = SURFACE_STYLE_USAGE ( .BOTH. , #160 ) ;
#6 = CARTESIAN_POINT ( 'NONE',  ( 669.7828802530862000, 193.8493915490578600, 0.0000000000000000000 ) ) ;
#7 = PRODUCT_DEFINITION_FORMATION_WITH_SPECIFIED_SOURCE ( 'ÈÎºÎ', '', #40, .NOT_KNOWN. ) ;
#8 = EDGE_CURVE ( 'NONE', #103, #148, #163, .T. ) ;
#9 = CYLINDRICAL_SURFACE ( 'NONE', #165, 19.99999999999998900 ) ;
#10 = ADVANCED_FACE ( 'NONE', ( #22 ), #75, .F. ) ;
#11 = AXIS2_PLACEMENT_3D ( 'NONE', #32, #77, #15 ) ;
#12 =( LENGTH_UNIT ( ) NAMED_UNIT ( * ) SI_UNIT ( .MILLI., .METRE. ) );
#13 = EDGE_LOOP ( 'NONE', ( #36, #96, #158, #172, #111 ) ) ;
#14 = DIRECTION ( 'NONE',  ( 0.0000000000000000000, 0.0000000000000000000, 1.000000000000000000 ) ) ;
#15 = DIRECTION ( 'NONE',  ( 0.0000000000000000000, 0.0000000000000000000, 1.000000000000000000 ) ) ;
#16 = CIRCLE ( 'NONE', #146, 19.99999999999998900 ) ;
#17 = VECTOR ( 'NONE', #79, 1000.000000000000000 ) ;
#18 = DIRECTION ( 'NONE',  ( 0.0000000000000000000, 0.0000000000000000000, 1.000000000000000000 ) ) ;
#19 = EDGE_CURVE ( 'NONE', #33, #76, #170, .T. ) ;
#20 = MECHANICAL_DESIGN_GEOMETRIC_PRESENTATION_REPRESENTATION (  '', ( #134 ), #62 ) ;
#21 = FACE_OUTER_BOUND ( 'NONE', #68, .T. ) ;
#22 = FACE_OUTER_BOUND ( 'NONE', #27, .T. ) ;
#23 = DIRECTION ( 'NONE',  ( 0.0000000000000000000, 1.000000000000000000, 0.0000000000000000000 ) ) ;
#24 = DIRECTION ( 'NONE',  ( -1.000000000000000000, -0.0000000000000000000, -0.0000000000000000000 ) ) ;
#25 = ORIENTED_EDGE ( 'NONE', *, *, #102, .F. ) ;
#26 = APPLICATION_PROTOCOL_DEFINITION ( 'draft international standard', 'automotive_design', 1998, #169 ) ;
#27 = EDGE_LOOP ( 'NONE', ( #182, #55 ) ) ;
#28 = PRODUCT_CONTEXT ( 'NONE', #169, 'mechanical' ) ;
#29 = CYLINDRICAL_SURFACE ( 'NONE', #123, 19.99999999999998900 ) ;
#30 = CARTESIAN_POINT ( 'NONE',  ( 768.8719828171886100, 193.8493915490579400, -19.99999999999998900 ) ) ;
#31 = VERTEX_POINT ( 'NONE', #91 ) ;
#32 = CARTESIAN_POINT ( 'NONE',  ( 768.8719828171886100, 193.8493915490579400, 0.0000000000000000000 ) ) ;
#33 = VERTEX_POINT ( 'NONE', #131 ) ;
#34 = DIRECTION ( 'NONE',  ( -1.000000000000000000, -0.0000000000000000000, -0.0000000000000000000 ) ) ;
#35 = PRODUCT_DEFINITION_CONTEXT ( 'detailed design', #71, 'design' ) ;
#36 = ORIENTED_EDGE ( 'NONE', *, *, #8, .T. ) ;
#37 = PRESENTATION_LAYER_ASSIGNMENT (  '', '', ( #164 ) ) ;
#38 = FACE_OUTER_BOUND ( 'NONE', #150, .T. ) ;
#39 = MANIFOLD_SOLID_BREP ( 'Ðý×ª1', #106 ) ;
#40 = PRODUCT ( '100147', '100147', '', ( #28 ) ) ;
#41 = AXIS2_PLACEMENT_3D ( 'NONE', #6, #119, #82 ) ;
#42 = DIRECTION ( 'NONE',  ( -1.000000000000000000, -0.0000000000000000000, -0.0000000000000000000 ) ) ;
#43 = DIRECTION ( 'NONE',  ( 0.0000000000000000000, 0.0000000000000000000, 1.000000000000000000 ) ) ;
#44 =( NAMED_UNIT ( * ) SI_UNIT ( $, .STERADIAN. ) SOLID_ANGLE_UNIT ( ) );
#45 = CIRCLE ( 'NONE', #110, 19.99999999999998900 ) ;
#46 = ORIENTED_EDGE ( 'NONE', *, *, #2, .T. ) ;
#47 = CARTESIAN_POINT ( 'NONE',  ( 768.8719828171886100, 193.8493915490579400, 0.0000000000000000000 ) ) ;
#48 = CARTESIAN_POINT ( 'NONE',  ( 771.3719828171886100, 193.8493915490579400, -19.99999999999998900 ) ) ;
#49 = ORIENTED_EDGE ( 'NONE', *, *, #147, .T. ) ;
#50 = FILL_AREA_STYLE ('',( #175 ) ) ;
#51 = EDGE_CURVE ( 'NONE', #33, #103, #45, .T. ) ;
#52 = VECTOR ( 'NONE', #34, 1000.000000000000000 ) ;
#53 = ORIENTED_EDGE ( 'NONE', *, *, #51, .F. ) ;
#54 = CIRCLE ( 'NONE', #11, 19.99999999999998900 ) ;
#55 = ORIENTED_EDGE ( 'NONE', *, *, #136, .T. ) ;
#56 = FILL_AREA_STYLE_COLOUR ( '', #58 ) ;
#57 =( GEOMETRIC_REPRESENTATION_CONTEXT ( 3 ) GLOBAL_UNCERTAINTY_ASSIGNED_CONTEXT ( ( #90 ) ) GLOBAL_UNIT_ASSIGNED_CONTEXT ( ( #112, #113, #152 ) ) REPRESENTATION_CONTEXT ( 'NONE', 'WORKASPACE' ) );
#58 = COLOUR_RGB ( '',1.000000000000000000, 1.000000000000000000, 1.000000000000000000 ) ;
#59 = DIRECTION ( 'NONE',  ( 1.000000000000000000, 0.0000000000000000000, 0.0000000000000000000 ) ) ;
#60 = CIRCLE ( 'NONE', #126, 19.99999999999998900 ) ;
#61 = COLOUR_RGB ( '',1.000000000000000000, 1.000000000000000000, 1.000000000000000000 ) ;
#62 =( GEOMETRIC_REPRESENTATION_CONTEXT ( 3 ) GLOBAL_UNCERTAINTY_ASSIGNED_CONTEXT ( ( #72 ) ) GLOBAL_UNIT_ASSIGNED_CONTEXT ( ( #180, #179, #120 ) ) REPRESENTATION_CONTEXT ( 'NONE', 'WORKASPACE' ) );
#63 = CARTESIAN_POINT ( 'NONE',  ( 771.3719828171886100, 213.8493915490579100, 0.0000000000000000000 ) ) ;
#64 = FACE_OUTER_BOUND ( 'NONE', #13, .T. ) ;
#65 = ORIENTED_EDGE ( 'NONE', *, *, #19, .T. ) ;
#66 = ADVANCED_FACE ( 'NONE', ( #38 ), #124, .T. ) ;
#67 =( NAMED_UNIT ( * ) PLANE_ANGLE_UNIT ( ) SI_UNIT ( $, .RADIAN. ) );
#68 = EDGE_LOOP ( 'NONE', ( #144, #87, #49, #65, #138 ) ) ;
#69 = AXIS2_PLACEMENT_3D ( 'NONE', #135, #141, #23 ) ;
#70 = DIRECTION ( 'NONE',  ( 1.000000000000000000, 0.0000000000000000000, 0.0000000000000000000 ) ) ;
#71 = APPLICATION_CONTEXT ( 'automotive_design' ) ;
#72 = UNCERTAINTY_MEASURE_WITH_UNIT (LENGTH_MEASURE( 1.000000000000000100E-005 ), #180, 'distance_accuracy_value', 'NONE');
#73 = PRESENTATION_STYLE_ASSIGNMENT (( #5 ) ) ;
#74 = DIRECTION ( 'NONE',  ( 0.0000000000000000000, 0.0000000000000000000, -1.000000000000000000 ) ) ;
#75 = PLANE ( 'NONE',  #151 ) ;
#76 = VERTEX_POINT ( 'NONE', #118 ) ;
#77 = DIRECTION ( 'NONE',  ( -1.000000000000000000, -0.0000000000000000000, -0.0000000000000000000 ) ) ;
#78 = DIRECTION ( 'NONE',  ( -0.0000000000000000000, 0.0000000000000000000, -1.000000000000000000 ) ) ;
#79 = DIRECTION ( 'NONE',  ( -1.000000000000000000, -0.0000000000000000000, -0.0000000000000000000 ) ) ;
#80 = LINE ( 'NONE', #156, #17 ) ;
#81 = ORIENTED_EDGE ( 'NONE', *, *, #184, .F. ) ;
#82 = DIRECTION ( 'NONE',  ( 1.000000000000000000, 0.0000000000000000000, 0.0000000000000000000 ) ) ;
#83 = ORIENTED_EDGE ( 'NONE', *, *, #147, .F. ) ;
#84 = CARTESIAN_POINT ( 'NONE',  ( 771.3719828171886100, 193.8493915490579400, 0.0000000000000000000 ) ) ;
#85 = DIRECTION ( 'NONE',  ( 0.0000000000000000000, 0.0000000000000000000, 1.000000000000000000 ) ) ;
#86 = EDGE_CURVE ( 'NONE', #148, #168, #80, .T. ) ;
#87 = ORIENTED_EDGE ( 'NONE', *, *, #184, .T. ) ;
#88 = CARTESIAN_POINT ( 'NONE',  ( 771.3719828171886100, 173.8493915490579100, -2.449293598294703000E-015 ) ) ;
#89 = DIRECTION ( 'NONE',  ( 0.0000000000000000000, 0.0000000000000000000, 1.000000000000000000 ) ) ;
#90 = UNCERTAINTY_MEASURE_WITH_UNIT (LENGTH_MEASURE( 1.000000000000000100E-005 ), #112, 'distance_accuracy_value', 'NONE');
#91 = CARTESIAN_POINT ( 'NONE',  ( 773.3219828171886500, 193.8493915490578600, 0.0000000000000000000 ) ) ;
#92 = FACE_OUTER_BOUND ( 'NONE', #93, .T. ) ;
#93 = EDGE_LOOP ( 'NONE', ( #25, #46, #53, #83 ) ) ;
#94 = ADVANCED_FACE ( 'NONE', ( #92 ), #167, .T. ) ;
#95 = CIRCLE ( 'NONE', #98, 103.5391025641025100 ) ;
#96 = ORIENTED_EDGE ( 'NONE', *, *, #86, .T. ) ;
#97 = CARTESIAN_POINT ( 'NONE',  ( 771.3719828171886100, 193.8493915490579400, 0.0000000000000000000 ) ) ;
#98 = AXIS2_PLACEMENT_3D ( 'NONE', #145, #155, #174 ) ;
#99 = VERTEX_POINT ( 'NONE', #88 ) ;
#100 = FILL_AREA_STYLE ('',( #56 ) ) ;
#101 = SURFACE_STYLE_FILL_AREA ( #100 ) ;
#102 = EDGE_CURVE ( 'NONE', #31, #99, #95, .T. ) ;
#103 = VERTEX_POINT ( 'NONE', #63 ) ;
#104 = DIRECTION ( 'NONE',  ( -1.000000000000000000, -0.0000000000000000000, -0.0000000000000000000 ) ) ;
#105 = CIRCLE ( 'NONE', #176, 19.99999999999998900 ) ;
#106 = CLOSED_SHELL ( 'NONE', ( #181, #66, #94, #122, #10 ) ) ;
#107 = PRODUCT_DEFINITION ( 'Î´Öª', '', #7, #35 ) ;
#108 = AXIS2_PLACEMENT_3D ( 'NONE', #127, #78, #4 ) ;
#109 = CARTESIAN_POINT ( 'NONE',  ( 771.3719828171886100, 193.8493915490579400, 0.0000000000000000000 ) ) ;
#110 = AXIS2_PLACEMENT_3D ( 'NONE', #84, #186, #85 ) ;
#111 = ORIENTED_EDGE ( 'NONE', *, *, #51, .T. ) ;
#112 =( LENGTH_UNIT ( ) NAMED_UNIT ( * ) SI_UNIT ( .MILLI., .METRE. ) );
#113 =( NAMED_UNIT ( * ) PLANE_ANGLE_UNIT ( ) SI_UNIT ( $, .RADIAN. ) );
#114 = AXIS2_PLACEMENT_3D ( 'NONE', #149, #185, #70 ) ;
#115 = DIRECTION ( 'NONE',  ( -1.000000000000000000, -0.0000000000000000000, -0.0000000000000000000 ) ) ;
#116 = DIRECTION ( 'NONE',  ( 0.0000000000000000000, 0.0000000000000000000, 1.000000000000000000 ) ) ;
#117 = PRESENTATION_STYLE_ASSIGNMENT (( #139 ) ) ;
#118 = CARTESIAN_POINT ( 'NONE',  ( 768.8719828171886100, 193.8493915490579400, 19.99999999999998900 ) ) ;
#119 = DIRECTION ( 'NONE',  ( -0.0000000000000000000, 0.0000000000000000000, 1.000000000000000000 ) ) ;
#120 =( NAMED_UNIT ( * ) SI_UNIT ( $, .STERADIAN. ) SOLID_ANGLE_UNIT ( ) );
#121 = SURFACE_STYLE_FILL_AREA ( #50 ) ;
#122 = ADVANCED_FACE ( 'NONE', ( #21 ), #9, .T. ) ;
#123 = AXIS2_PLACEMENT_3D ( 'NONE', #129, #130, #116 ) ;
#124 = SPHERICAL_SURFACE ( 'NONE', #69, 103.5391025641024800 ) ;
#125 = PRESENTATION_LAYER_ASSIGNMENT (  '', '', ( #134 ) ) ;
#126 = AXIS2_PLACEMENT_3D ( 'NONE', #159, #115, #89 ) ;
#127 = CARTESIAN_POINT ( 'NONE',  ( 669.7828802530862000, 193.8493915490578600, 0.0000000000000000000 ) ) ;
#128 = ORIENTED_EDGE ( 'NONE', *, *, #2, .F. ) ;
#129 = CARTESIAN_POINT ( 'NONE',  ( 764.1774396366115500, 193.8493915490579400, 0.0000000000000000000 ) ) ;
#130 = DIRECTION ( 'NONE',  ( -1.000000000000000000, -0.0000000000000000000, -0.0000000000000000000 ) ) ;
#131 = CARTESIAN_POINT ( 'NONE',  ( 771.3719828171886100, 193.8493915490579400, 19.99999999999998900 ) ) ;
#132 = CIRCLE ( 'NONE', #41, 103.5391025641024800 ) ;
#133 = ORIENTED_EDGE ( 'NONE', *, *, #102, .T. ) ;
#134 = STYLED_ITEM ( 'NONE', ( #73 ), #39 ) ;
#135 = CARTESIAN_POINT ( 'NONE',  ( 669.7828802530862000, 193.8493915490578600, 0.0000000000000000000 ) ) ;
#136 = EDGE_CURVE ( 'NONE', #168, #76, #16, .T. ) ;
#137 = APPLICATION_PROTOCOL_DEFINITION ( 'draft international standard', 'automotive_design', 1998, #71 ) ;
#138 = ORIENTED_EDGE ( 'NONE', *, *, #136, .F. ) ;
#139 = SURFACE_STYLE_USAGE ( .BOTH. , #183 ) ;
#140 = CARTESIAN_POINT ( 'NONE',  ( 768.8719828171886100, 193.8493915490579400, 0.0000000000000000000 ) ) ;
#141 = DIRECTION ( 'NONE',  ( -0.0000000000000000000, 0.0000000000000000000, -1.000000000000000000 ) ) ;
#142 = UNCERTAINTY_MEASURE_WITH_UNIT (LENGTH_MEASURE( 1.000000000000000100E-005 ), #12, 'distance_accuracy_value', 'NONE');
#143 = DIRECTION ( 'NONE',  ( 0.0000000000000000000, 0.0000000000000000000, 1.000000000000000000 ) ) ;
#144 = ORIENTED_EDGE ( 'NONE', *, *, #86, .F. ) ;
#145 = CARTESIAN_POINT ( 'NONE',  ( 669.7828802530862000, 193.8493915490578600, 0.0000000000000000000 ) ) ;
#146 = AXIS2_PLACEMENT_3D ( 'NONE', #47, #171, #143 ) ;
#147 = EDGE_CURVE ( 'NONE', #99, #33, #60, .T. ) ;
#148 = VERTEX_POINT ( 'NONE', #48 ) ;
#149 = CARTESIAN_POINT ( 'NONE',  ( 0.0000000000000000000, 0.0000000000000000000, 0.0000000000000000000 ) ) ;
#150 = EDGE_LOOP ( 'NONE', ( #128, #133, #81, #178 ) ) ;
#151 = AXIS2_PLACEMENT_3D ( 'NONE', #140, #59, #74 ) ;
#152 =( NAMED_UNIT ( * ) SI_UNIT ( $, .STERADIAN. ) SOLID_ANGLE_UNIT ( ) );
#153 = ADVANCED_BREP_SHAPE_REPRESENTATION ( '100147', ( #39, #114 ), #166 ) ;
#154 = AXIS2_PLACEMENT_3D ( 'NONE', #109, #24, #14 ) ;
#155 = DIRECTION ( 'NONE',  ( 0.0000000000000000000, 1.224646799147353200E-016, -1.000000000000000000 ) ) ;
#156 = CARTESIAN_POINT ( 'NONE',  ( 764.1774396366115500, 193.8493915490579400, -19.99999999999998900 ) ) ;
#157 = SHAPE_DEFINITION_REPRESENTATION ( #161, #153 ) ;
#158 = ORIENTED_EDGE ( 'NONE', *, *, #177, .F. ) ;
#159 = CARTESIAN_POINT ( 'NONE',  ( 771.3719828171886100, 193.8493915490579400, 0.0000000000000000000 ) ) ;
#160 = SURFACE_SIDE_STYLE ('',( #121 ) ) ;
#161 = PRODUCT_DEFINITION_SHAPE ( 'NONE', 'NONE',  #107 ) ;
#162 = CARTESIAN_POINT ( 'NONE',  ( 764.1774396366115500, 193.8493915490579400, 19.99999999999998900 ) ) ;
#163 = CIRCLE ( 'NONE', #154, 19.99999999999998900 ) ;
#164 = STYLED_ITEM ( 'NONE', ( #117 ), #153 ) ;
#165 = AXIS2_PLACEMENT_3D ( 'NONE', #3, #104, #18 ) ;
#166 =( GEOMETRIC_REPRESENTATION_CONTEXT ( 3 ) GLOBAL_UNCERTAINTY_ASSIGNED_CONTEXT ( ( #142 ) ) GLOBAL_UNIT_ASSIGNED_CONTEXT ( ( #12, #67, #44 ) ) REPRESENTATION_CONTEXT ( 'NONE', 'WORKASPACE' ) );
#167 = SPHERICAL_SURFACE ( 'NONE', #108, 103.5391025641024800 ) ;
#168 = VERTEX_POINT ( 'NONE', #30 ) ;
#169 = APPLICATION_CONTEXT ( 'automotive_design' ) ;
#170 = LINE ( 'NONE', #162, #52 ) ;
#171 = DIRECTION ( 'NONE',  ( -1.000000000000000000, -0.0000000000000000000, -0.0000000000000000000 ) ) ;
#172 = ORIENTED_EDGE ( 'NONE', *, *, #19, .F. ) ;
#173 = MECHANICAL_DESIGN_GEOMETRIC_PRESENTATION_REPRESENTATION (  '', ( #164 ), #57 ) ;
#174 = DIRECTION ( 'NONE',  ( 0.0000000000000000000, 1.000000000000000000, 1.224646799147353000E-016 ) ) ;
#175 = FILL_AREA_STYLE_COLOUR ( '', #61 ) ;
#176 = AXIS2_PLACEMENT_3D ( 'NONE', #97, #42, #43 ) ;
#177 = EDGE_CURVE ( 'NONE', #76, #168, #54, .T. ) ;
#178 = ORIENTED_EDGE ( 'NONE', *, *, #8, .F. ) ;
#179 =( NAMED_UNIT ( * ) PLANE_ANGLE_UNIT ( ) SI_UNIT ( $, .RADIAN. ) );
#180 =( LENGTH_UNIT ( ) NAMED_UNIT ( * ) SI_UNIT ( .MILLI., .METRE. ) );
#181 = ADVANCED_FACE ( 'NONE', ( #64 ), #29, .T. ) ;
#182 = ORIENTED_EDGE ( 'NONE', *, *, #177, .T. ) ;
#183 = SURFACE_SIDE_STYLE ('',( #101 ) ) ;
#184 = EDGE_CURVE ( 'NONE', #148, #99, #105, .T. ) ;
#185 = DIRECTION ( 'NONE',  ( 0.0000000000000000000, 0.0000000000000000000, 1.000000000000000000 ) ) ;
#186 = DIRECTION ( 'NONE',  ( -1.000000000000000000, -0.0000000000000000000, -0.0000000000000000000 ) ) ;
ENDSEC;
END-ISO-10303-21;
