ISO-10303-21;
HEADER;
FILE_DESCRIPTION (( 'STEP AP214' ),
    '1' );
FILE_NAME ('100103.STEP',
    '2019-05-13T07:50:00',
    ( '' ),
    ( '' ),
    'SwSTEP 2.0',
    'SolidWorks 2016',
    '' );
FILE_SCHEMA (( 'AUTOMOTIVE_DESIGN' ));
ENDSEC;

DATA;
#1 = CIRCLE ( 'NONE', #85, 5.000000000000004400 ) ;
#2 = SURFACE_STYLE_FILL_AREA ( #3 ) ;
#3 = FILL_AREA_STYLE ('',( #87 ) ) ;
#4 = SURFACE_STYLE_FILL_AREA ( #132 ) ;
#5 = CARTESIAN_POINT ( 'NONE',  ( 589.1325797843183000, 230.5823184739969100, 5.000000000000004400 ) ) ;
#6 = EDGE_CURVE ( 'NONE', #170, #137, #184, .T. ) ;
#7 = DIRECTION ( 'NONE',  ( -1.000000000000000000, -0.0000000000000000000, -0.0000000000000000000 ) ) ;
#8 = LINE ( 'NONE', #129, #54 ) ;
#9 = COLOUR_RGB ( '',1.000000000000000000, 1.000000000000000000, 1.000000000000000000 ) ;
#10 = DIRECTION ( 'NONE',  ( -0.0000000000000000000, 0.0000000000000000000, -1.000000000000000000 ) ) ;
#11 = AXIS2_PLACEMENT_3D ( 'NONE', #28, #10, #118 ) ;
#12 =( LENGTH_UNIT ( ) NAMED_UNIT ( * ) SI_UNIT ( .MILLI., .METRE. ) );
#13 = AXIS2_PLACEMENT_3D ( 'NONE', #174, #7, #116 ) ;
#14 = ORIENTED_EDGE ( 'NONE', *, *, #121, .F. ) ;
#15 = ORIENTED_EDGE ( 'NONE', *, *, #186, .T. ) ;
#16 = ADVANCED_FACE ( 'NONE', ( #163 ), #31, .F. ) ;
#17 = AXIS2_PLACEMENT_3D ( 'NONE', #149, #146, #39 ) ;
#18 = DIRECTION ( 'NONE',  ( 0.0000000000000000000, 1.000000000000000000, 0.0000000000000000000 ) ) ;
#19 =( LENGTH_UNIT ( ) NAMED_UNIT ( * ) SI_UNIT ( .MILLI., .METRE. ) );
#20 = AXIS2_PLACEMENT_3D ( 'NONE', #61, #102, #88 ) ;
#21 = DIRECTION ( 'NONE',  ( -1.000000000000000000, -0.0000000000000000000, -0.0000000000000000000 ) ) ;
#22 = ADVANCED_FACE ( 'NONE', ( #141 ), #33, .T. ) ;
#23 = ORIENTED_EDGE ( 'NONE', *, *, #121, .T. ) ;
#24 = DIRECTION ( 'NONE',  ( 0.0000000000000000000, 0.0000000000000000000, 1.000000000000000000 ) ) ;
#25 = SURFACE_SIDE_STYLE ('',( #4 ) ) ;
#26 =( NAMED_UNIT ( * ) PLANE_ANGLE_UNIT ( ) SI_UNIT ( $, .RADIAN. ) );
#27 =( NAMED_UNIT ( * ) SI_UNIT ( $, .STERADIAN. ) SOLID_ANGLE_UNIT ( ) );
#28 = CARTESIAN_POINT ( 'NONE',  ( 588.1668468783004800, 230.5823184739968500, 0.0000000000000000000 ) ) ;
#29 = ORIENTED_EDGE ( 'NONE', *, *, #167, .T. ) ;
#30 = AXIS2_PLACEMENT_3D ( 'NONE', #115, #159, #36 ) ;
#31 = PLANE ( 'NONE',  #52 ) ;
#32 = CIRCLE ( 'NONE', #166, 5.000000000000004400 ) ;
#33 = SPHERICAL_SURFACE ( 'NONE', #175, 12.88123762376250300 ) ;
#34 = DIRECTION ( 'NONE',  ( 0.0000000000000000000, 1.224646799147353200E-016, -1.000000000000000000 ) ) ;
#35 = COLOUR_RGB ( '',1.000000000000000000, 1.000000000000000000, 1.000000000000000000 ) ;
#36 = DIRECTION ( 'NONE',  ( 0.0000000000000000000, 0.0000000000000000000, 1.000000000000000000 ) ) ;
#37 = MANIFOLD_SOLID_BREP ( 'Ðý×ª1', #91 ) ;
#38 = SPHERICAL_SURFACE ( 'NONE', #11, 12.88123762376250300 ) ;
#39 = DIRECTION ( 'NONE',  ( 0.0000000000000000000, 0.0000000000000000000, 1.000000000000000000 ) ) ;
#40 = PRODUCT_CONTEXT ( 'NONE', #119, 'mechanical' ) ;
#41 = ORIENTED_EDGE ( 'NONE', *, *, #113, .T. ) ;
#42 =( LENGTH_UNIT ( ) NAMED_UNIT ( * ) SI_UNIT ( .MILLI., .METRE. ) );
#43 = EDGE_CURVE ( 'NONE', #137, #71, #32, .T. ) ;
#44 = ORIENTED_EDGE ( 'NONE', *, *, #72, .T. ) ;
#45 = ADVANCED_FACE ( 'NONE', ( #154 ), #46, .T. ) ;
#46 = CYLINDRICAL_SURFACE ( 'NONE', #80, 5.000000000000004400 ) ;
#47 = PRODUCT ( '100103', '100103', '', ( #40 ) ) ;
#48 = ORIENTED_EDGE ( 'NONE', *, *, #6, .F. ) ;
#49 = ORIENTED_EDGE ( 'NONE', *, *, #128, .T. ) ;
#50 = CARTESIAN_POINT ( 'NONE',  ( 598.5480845020630300, 230.5823184739969100, 5.000000000000004400 ) ) ;
#51 = SURFACE_SIDE_STYLE ('',( #2 ) ) ;
#52 = AXIS2_PLACEMENT_3D ( 'NONE', #124, #60, #73 ) ;
#53 = DIRECTION ( 'NONE',  ( 0.0000000000000000000, 0.0000000000000000000, 1.000000000000000000 ) ) ;
#54 = VECTOR ( 'NONE', #160, 1000.000000000000000 ) ;
#55 = ORIENTED_EDGE ( 'NONE', *, *, #167, .F. ) ;
#56 = DIRECTION ( 'NONE',  ( 0.0000000000000000000, 0.0000000000000000000, 1.000000000000000000 ) ) ;
#57 = PRESENTATION_LAYER_ASSIGNMENT (  '', '', ( #123 ) ) ;
#58 = CARTESIAN_POINT ( 'NONE',  ( 588.1668468783004800, 230.5823184739968500, 0.0000000000000000000 ) ) ;
#59 = ORIENTED_EDGE ( 'NONE', *, *, #113, .F. ) ;
#60 = DIRECTION ( 'NONE',  ( 1.000000000000000000, 0.0000000000000000000, 0.0000000000000000000 ) ) ;
#61 = CARTESIAN_POINT ( 'NONE',  ( 588.1668468783004800, 230.5823184739968500, 0.0000000000000000000 ) ) ;
#62 = DIRECTION ( 'NONE',  ( -1.000000000000000000, -0.0000000000000000000, -0.0000000000000000000 ) ) ;
#63 = VERTEX_POINT ( 'NONE', #50 ) ;
#64 = CARTESIAN_POINT ( 'NONE',  ( 600.0380845020629300, 235.5823184739968500, 0.0000000000000000000 ) ) ;
#65 = EDGE_CURVE ( 'NONE', #71, #155, #76, .T. ) ;
#66 = APPLICATION_PROTOCOL_DEFINITION ( 'draft international standard', 'automotive_design', 1998, #119 ) ;
#67 =( NAMED_UNIT ( * ) SI_UNIT ( $, .STERADIAN. ) SOLID_ANGLE_UNIT ( ) );
#68 = PRODUCT_RELATED_PRODUCT_CATEGORY ( 'part', '', ( #47 ) ) ;
#69 = EDGE_CURVE ( 'NONE', #170, #155, #183, .T. ) ;
#70 = MECHANICAL_DESIGN_GEOMETRIC_PRESENTATION_REPRESENTATION (  '', ( #123 ), #135 ) ;
#71 = VERTEX_POINT ( 'NONE', #158 ) ;
#72 = EDGE_CURVE ( 'NONE', #71, #63, #99, .T. ) ;
#73 = DIRECTION ( 'NONE',  ( 0.0000000000000000000, 0.0000000000000000000, -1.000000000000000000 ) ) ;
#74 = EDGE_LOOP ( 'NONE', ( #49, #15 ) ) ;
#75 = ADVANCED_FACE ( 'NONE', ( #81 ), #169, .T. ) ;
#76 = CIRCLE ( 'NONE', #13, 5.000000000000004400 ) ;
#77 = DIRECTION ( 'NONE',  ( 0.0000000000000000000, 0.0000000000000000000, 1.000000000000000000 ) ) ;
#78 = EDGE_LOOP ( 'NONE', ( #14, #29, #180, #44, #182 ) ) ;
#79 = SURFACE_STYLE_USAGE ( .BOTH. , #25 ) ;
#80 = AXIS2_PLACEMENT_3D ( 'NONE', #114, #89, #131 ) ;
#81 = FACE_OUTER_BOUND ( 'NONE', #78, .T. ) ;
#82 = ORIENTED_EDGE ( 'NONE', *, *, #72, .F. ) ;
#83 = UNCERTAINTY_MEASURE_WITH_UNIT (LENGTH_MEASURE( 1.000000000000000100E-005 ), #42, 'distance_accuracy_value', 'NONE');
#84 = CIRCLE ( 'NONE', #17, 5.000000000000004400 ) ;
#85 = AXIS2_PLACEMENT_3D ( 'NONE', #181, #164, #133 ) ;
#86 = SHAPE_DEFINITION_REPRESENTATION ( #96, #162 ) ;
#87 = FILL_AREA_STYLE_COLOUR ( '', #9 ) ;
#88 = DIRECTION ( 'NONE',  ( 1.000000000000000000, 0.0000000000000000000, 0.0000000000000000000 ) ) ;
#89 = DIRECTION ( 'NONE',  ( -1.000000000000000000, -0.0000000000000000000, -0.0000000000000000000 ) ) ;
#90 = CARTESIAN_POINT ( 'NONE',  ( 598.5480845020630300, 230.5823184739969100, -5.000000000000004400 ) ) ;
#91 = CLOSED_SHELL ( 'NONE', ( #45, #22, #172, #75, #16 ) ) ;
#92 = CARTESIAN_POINT ( 'NONE',  ( 598.5480845020630300, 230.5823184739969100, 0.0000000000000000000 ) ) ;
#93 = DIRECTION ( 'NONE',  ( 1.000000000000000000, 0.0000000000000000000, 0.0000000000000000000 ) ) ;
#94 = APPLICATION_PROTOCOL_DEFINITION ( 'draft international standard', 'automotive_design', 1998, #165 ) ;
#95 = VECTOR ( 'NONE', #62, 1000.000000000000000 ) ;
#96 = PRODUCT_DEFINITION_SHAPE ( 'NONE', 'NONE',  #152 ) ;
#97 =( GEOMETRIC_REPRESENTATION_CONTEXT ( 3 ) GLOBAL_UNCERTAINTY_ASSIGNED_CONTEXT ( ( #168 ) ) GLOBAL_UNIT_ASSIGNED_CONTEXT ( ( #12, #26, #67 ) ) REPRESENTATION_CONTEXT ( 'NONE', 'WORKASPACE' ) );
#98 = STYLED_ITEM ( 'NONE', ( #120 ), #162 ) ;
#99 = LINE ( 'NONE', #5, #95 ) ;
#100 = ORIENTED_EDGE ( 'NONE', *, *, #128, .F. ) ;
#101 = SURFACE_STYLE_USAGE ( .BOTH. , #51 ) ;
#102 = DIRECTION ( 'NONE',  ( -0.0000000000000000000, 0.0000000000000000000, 1.000000000000000000 ) ) ;
#103 = DIRECTION ( 'NONE',  ( -1.000000000000000000, -0.0000000000000000000, -0.0000000000000000000 ) ) ;
#104 =( NAMED_UNIT ( * ) SI_UNIT ( $, .STERADIAN. ) SOLID_ANGLE_UNIT ( ) );
#105 = PRESENTATION_STYLE_ASSIGNMENT (( #101 ) ) ;
#106 = MECHANICAL_DESIGN_GEOMETRIC_PRESENTATION_REPRESENTATION (  '', ( #98 ), #142 ) ;
#107 = ORIENTED_EDGE ( 'NONE', *, *, #69, .T. ) ;
#108 = PRODUCT_DEFINITION_CONTEXT ( 'detailed design', #165, 'design' ) ;
#109 = CIRCLE ( 'NONE', #173, 5.000000000000004400 ) ;
#110 = ORIENTED_EDGE ( 'NONE', *, *, #43, .F. ) ;
#111 = PRESENTATION_LAYER_ASSIGNMENT (  '', '', ( #98 ) ) ;
#112 = CARTESIAN_POINT ( 'NONE',  ( 600.0380845020629300, 230.5823184739969100, 0.0000000000000000000 ) ) ;
#113 = EDGE_CURVE ( 'NONE', #155, #117, #150, .T. ) ;
#114 = CARTESIAN_POINT ( 'NONE',  ( 589.1325797843183000, 230.5823184739969100, 0.0000000000000000000 ) ) ;
#115 = CARTESIAN_POINT ( 'NONE',  ( 589.1325797843183000, 230.5823184739969100, 0.0000000000000000000 ) ) ;
#116 = DIRECTION ( 'NONE',  ( 0.0000000000000000000, 0.0000000000000000000, 1.000000000000000000 ) ) ;
#117 = VERTEX_POINT ( 'NONE', #145 ) ;
#118 = DIRECTION ( 'NONE',  ( 0.0000000000000000000, 1.000000000000000000, 0.0000000000000000000 ) ) ;
#119 = APPLICATION_CONTEXT ( 'automotive_design' ) ;
#120 = PRESENTATION_STYLE_ASSIGNMENT (( #79 ) ) ;
#121 = EDGE_CURVE ( 'NONE', #117, #161, #8, .T. ) ;
#122 = ORIENTED_EDGE ( 'NONE', *, *, #65, .T. ) ;
#123 = STYLED_ITEM ( 'NONE', ( #105 ), #37 ) ;
#124 = CARTESIAN_POINT ( 'NONE',  ( 598.5480845020630300, 230.5823184739969100, 0.0000000000000000000 ) ) ;
#125 = EDGE_LOOP ( 'NONE', ( #41, #23, #100, #82, #122 ) ) ;
#126 = CARTESIAN_POINT ( 'NONE',  ( 588.1668468783004800, 230.5823184739968500, 0.0000000000000000000 ) ) ;
#127 = DIRECTION ( 'NONE',  ( -1.000000000000000000, -0.0000000000000000000, -0.0000000000000000000 ) ) ;
#128 = EDGE_CURVE ( 'NONE', #63, #161, #109, .T. ) ;
#129 = CARTESIAN_POINT ( 'NONE',  ( 589.1325797843183000, 230.5823184739969100, -5.000000000000004400 ) ) ;
#130 = UNCERTAINTY_MEASURE_WITH_UNIT (LENGTH_MEASURE( 1.000000000000000100E-005 ), #19, 'distance_accuracy_value', 'NONE');
#131 = DIRECTION ( 'NONE',  ( 0.0000000000000000000, 0.0000000000000000000, 1.000000000000000000 ) ) ;
#132 = FILL_AREA_STYLE ('',( #148 ) ) ;
#133 = DIRECTION ( 'NONE',  ( 0.0000000000000000000, 0.0000000000000000000, 1.000000000000000000 ) ) ;
#134 =( NAMED_UNIT ( * ) PLANE_ANGLE_UNIT ( ) SI_UNIT ( $, .RADIAN. ) );
#135 =( GEOMETRIC_REPRESENTATION_CONTEXT ( 3 ) GLOBAL_UNCERTAINTY_ASSIGNED_CONTEXT ( ( #130 ) ) GLOBAL_UNIT_ASSIGNED_CONTEXT ( ( #19, #143, #104 ) ) REPRESENTATION_CONTEXT ( 'NONE', 'WORKASPACE' ) );
#136 = AXIS2_PLACEMENT_3D ( 'NONE', #58, #34, #140 ) ;
#137 = VERTEX_POINT ( 'NONE', #177 ) ;
#138 = ORIENTED_EDGE ( 'NONE', *, *, #69, .F. ) ;
#139 = ORIENTED_EDGE ( 'NONE', *, *, #65, .F. ) ;
#140 = DIRECTION ( 'NONE',  ( 0.0000000000000000000, 1.000000000000000000, 1.224646799147353200E-016 ) ) ;
#141 = FACE_OUTER_BOUND ( 'NONE', #171, .T. ) ;
#142 =( GEOMETRIC_REPRESENTATION_CONTEXT ( 3 ) GLOBAL_UNCERTAINTY_ASSIGNED_CONTEXT ( ( #83 ) ) GLOBAL_UNIT_ASSIGNED_CONTEXT ( ( #42, #134, #27 ) ) REPRESENTATION_CONTEXT ( 'NONE', 'WORKASPACE' ) );
#143 =( NAMED_UNIT ( * ) PLANE_ANGLE_UNIT ( ) SI_UNIT ( $, .RADIAN. ) );
#144 = CARTESIAN_POINT ( 'NONE',  ( 601.0480845020629200, 230.5823184739968500, 0.0000000000000000000 ) ) ;
#145 = CARTESIAN_POINT ( 'NONE',  ( 600.0380845020629300, 230.5823184739969100, -5.000000000000004400 ) ) ;
#146 = DIRECTION ( 'NONE',  ( -1.000000000000000000, -0.0000000000000000000, -0.0000000000000000000 ) ) ;
#147 = EDGE_LOOP ( 'NONE', ( #48, #107, #139, #110 ) ) ;
#148 = FILL_AREA_STYLE_COLOUR ( '', #35 ) ;
#149 = CARTESIAN_POINT ( 'NONE',  ( 598.5480845020630300, 230.5823184739969100, 0.0000000000000000000 ) ) ;
#150 = CIRCLE ( 'NONE', #185, 5.000000000000004400 ) ;
#151 = ORIENTED_EDGE ( 'NONE', *, *, #6, .T. ) ;
#152 = PRODUCT_DEFINITION ( 'Î´Öª', '', #156, #108 ) ;
#153 = AXIS2_PLACEMENT_3D ( 'NONE', #179, #56, #93 ) ;
#154 = FACE_OUTER_BOUND ( 'NONE', #125, .T. ) ;
#155 = VERTEX_POINT ( 'NONE', #64 ) ;
#156 = PRODUCT_DEFINITION_FORMATION_WITH_SPECIFIED_SOURCE ( 'ÈÎºÎ', '', #47, .NOT_KNOWN. ) ;
#157 = DIRECTION ( 'NONE',  ( -0.0000000000000000000, 0.0000000000000000000, -1.000000000000000000 ) ) ;
#158 = CARTESIAN_POINT ( 'NONE',  ( 600.0380845020629300, 230.5823184739969100, 5.000000000000004400 ) ) ;
#159 = DIRECTION ( 'NONE',  ( -1.000000000000000000, -0.0000000000000000000, -0.0000000000000000000 ) ) ;
#160 = DIRECTION ( 'NONE',  ( -1.000000000000000000, -0.0000000000000000000, -0.0000000000000000000 ) ) ;
#161 = VERTEX_POINT ( 'NONE', #90 ) ;
#162 = ADVANCED_BREP_SHAPE_REPRESENTATION ( '100103', ( #37, #153 ), #97 ) ;
#163 = FACE_OUTER_BOUND ( 'NONE', #74, .T. ) ;
#164 = DIRECTION ( 'NONE',  ( -1.000000000000000000, -0.0000000000000000000, -0.0000000000000000000 ) ) ;
#165 = APPLICATION_CONTEXT ( 'automotive_design' ) ;
#166 = AXIS2_PLACEMENT_3D ( 'NONE', #112, #127, #77 ) ;
#167 = EDGE_CURVE ( 'NONE', #117, #137, #1, .T. ) ;
#168 = UNCERTAINTY_MEASURE_WITH_UNIT (LENGTH_MEASURE( 1.000000000000000100E-005 ), #12, 'distance_accuracy_value', 'NONE');
#169 = CYLINDRICAL_SURFACE ( 'NONE', #30, 5.000000000000004400 ) ;
#170 = VERTEX_POINT ( 'NONE', #144 ) ;
#171 = EDGE_LOOP ( 'NONE', ( #138, #151, #55, #59 ) ) ;
#172 = ADVANCED_FACE ( 'NONE', ( #178 ), #38, .T. ) ;
#173 = AXIS2_PLACEMENT_3D ( 'NONE', #92, #103, #24 ) ;
#174 = CARTESIAN_POINT ( 'NONE',  ( 600.0380845020629300, 230.5823184739969100, 0.0000000000000000000 ) ) ;
#175 = AXIS2_PLACEMENT_3D ( 'NONE', #126, #157, #18 ) ;
#176 = CARTESIAN_POINT ( 'NONE',  ( 600.0380845020629300, 230.5823184739969100, 0.0000000000000000000 ) ) ;
#177 = CARTESIAN_POINT ( 'NONE',  ( 600.0380845020629300, 225.5823184739969100, -6.123233995736730800E-016 ) ) ;
#178 = FACE_OUTER_BOUND ( 'NONE', #147, .T. ) ;
#179 = CARTESIAN_POINT ( 'NONE',  ( 0.0000000000000000000, 0.0000000000000000000, 0.0000000000000000000 ) ) ;
#180 = ORIENTED_EDGE ( 'NONE', *, *, #43, .T. ) ;
#181 = CARTESIAN_POINT ( 'NONE',  ( 600.0380845020629300, 230.5823184739969100, 0.0000000000000000000 ) ) ;
#182 = ORIENTED_EDGE ( 'NONE', *, *, #186, .F. ) ;
#183 = CIRCLE ( 'NONE', #20, 12.88123762376247700 ) ;
#184 = CIRCLE ( 'NONE', #136, 12.88123762376250300 ) ;
#185 = AXIS2_PLACEMENT_3D ( 'NONE', #176, #21, #53 ) ;
#186 = EDGE_CURVE ( 'NONE', #161, #63, #84, .T. ) ;
ENDSEC;
END-ISO-10303-21;
