ISO-10303-21;
HEADER;
FILE_DESCRIPTION (( 'STEP AP214' ),
    '1' );
FILE_NAME ('100021.STEP',
    '2019-04-19T08:58:43',
    ( '' ),
    ( '' ),
    'SwSTEP 2.0',
    'SolidWorks 2016',
    '' );
FILE_SCHEMA (( 'AUTOMOTIVE_DESIGN' ));
ENDSEC;

DATA;
#1 = LINE ( 'NONE', #51, #72 ) ;
#2 = STYLED_ITEM ( 'NONE', ( #98 ), #102 ) ;
#3 = TOROIDAL_SURFACE ( 'NONE', #56, 0.0004230403558014295100, 32.24085817022945800 ) ;
#4 =( NAMED_UNIT ( * ) SI_UNIT ( $, .STERADIAN. ) SOLID_ANGLE_UNIT ( ) );
#5 = APPLICATION_CONTEXT ( 'automotive_design' ) ;
#6 = FACE_OUTER_BOUND ( 'NONE', #109, .T. ) ;
#7 = CIRCLE ( 'NONE', #34, 5.000000000000004400 ) ;
#8 = DIRECTION ( 'NONE',  ( -1.000000000000000000, -0.0000000000000000000, -0.0000000000000000000 ) ) ;
#9 = ORIENTED_EDGE ( 'NONE', *, *, #44, .F. ) ;
#10 = CIRCLE ( 'NONE', #159, 5.000000000000004400 ) ;
#11 = AXIS2_PLACEMENT_3D ( 'NONE', #70, #91, #150 ) ;
#12 = EDGE_CURVE ( 'NONE', #47, #107, #10, .T. ) ;
#13 =( NAMED_UNIT ( * ) PLANE_ANGLE_UNIT ( ) SI_UNIT ( $, .RADIAN. ) );
#14 = APPLICATION_CONTEXT ( 'automotive_design' ) ;
#15 = ORIENTED_EDGE ( 'NONE', *, *, #130, .T. ) ;
#16 = CARTESIAN_POINT ( 'NONE',  ( 1088.591384376666800, 408.4047292771748500, -5.000000000000004400 ) ) ;
#17 = CARTESIAN_POINT ( 'NONE',  ( 1088.591384376666800, 408.4047292771748500, 0.0000000000000000000 ) ) ;
#18 = CIRCLE ( 'NONE', #156, 5.000000000000004400 ) ;
#19 = EDGE_CURVE ( 'NONE', #125, #47, #79, .T. ) ;
#20 = ORIENTED_EDGE ( 'NONE', *, *, #12, .F. ) ;
#21 = CIRCLE ( 'NONE', #92, 32.24085817022945800 ) ;
#22 = FILL_AREA_STYLE ('',( #35 ) ) ;
#23 = AXIS2_PLACEMENT_3D ( 'NONE', #50, #128, #127 ) ;
#24 = DIRECTION ( 'NONE',  ( -1.000000000000000000, -0.0000000000000000000, -0.0000000000000000000 ) ) ;
#25 = SURFACE_STYLE_USAGE ( .BOTH. , #110 ) ;
#26 = DIRECTION ( 'NONE',  ( 0.0000000000000000000, 0.0000000000000000000, -1.000000000000000000 ) ) ;
#27 = UNCERTAINTY_MEASURE_WITH_UNIT (LENGTH_MEASURE( 1.000000000000000100E-005 ), #42, 'distance_accuracy_value', 'NONE');
#28 = APPLICATION_PROTOCOL_DEFINITION ( 'draft international standard', 'automotive_design', 1998, #5 ) ;
#29 = ORIENTED_EDGE ( 'NONE', *, *, #96, .F. ) ;
#30 = SHAPE_DEFINITION_REPRESENTATION ( #153, #59 ) ;
#31 = PRODUCT_DEFINITION ( 'Î´Öª', '', #108, #36 ) ;
#32 = DIRECTION ( 'NONE',  ( 0.0000000000000000000, 0.0000000000000000000, 1.000000000000000000 ) ) ;
#33 = EDGE_CURVE ( 'NONE', #107, #47, #65, .T. ) ;
#34 = AXIS2_PLACEMENT_3D ( 'NONE', #17, #120, #32 ) ;
#35 = FILL_AREA_STYLE_COLOUR ( '', #104 ) ;
#36 = PRODUCT_DEFINITION_CONTEXT ( 'detailed design', #5, 'design' ) ;
#37 = ORIENTED_EDGE ( 'NONE', *, *, #146, .F. ) ;
#38 = VERTEX_POINT ( 'NONE', #16 ) ;
#39 = DIRECTION ( 'NONE',  ( -1.000000000000000000, -0.0000000000000000000, -0.0000000000000000000 ) ) ;
#40 = CARTESIAN_POINT ( 'NONE',  ( 1088.591384376666800, 408.4047292771748500, 5.000000000000004400 ) ) ;
#41 = CYLINDRICAL_SURFACE ( 'NONE', #117, 5.000000000000004400 ) ;
#42 =( LENGTH_UNIT ( ) NAMED_UNIT ( * ) SI_UNIT ( .MILLI., .METRE. ) );
#43 = ADVANCED_FACE ( 'NONE', ( #148 ), #3, .T. ) ;
#44 = EDGE_CURVE ( 'NONE', #38, #122, #7, .T. ) ;
#45 = STYLED_ITEM ( 'NONE', ( #157 ), #59 ) ;
#46 = CARTESIAN_POINT ( 'NONE',  ( 1090.101384376666800, 408.4047292771748500, 0.0000000000000000000 ) ) ;
#47 = VERTEX_POINT ( 'NONE', #63 ) ;
#48 = ORIENTED_EDGE ( 'NONE', *, *, #64, .T. ) ;
#49 = COLOUR_RGB ( '',1.000000000000000000, 1.000000000000000000, 1.000000000000000000 ) ;
#50 = CARTESIAN_POINT ( 'NONE',  ( 1090.101384376666800, 408.4047292771748500, 0.0000000000000000000 ) ) ;
#51 = CARTESIAN_POINT ( 'NONE',  ( 1087.359863802599400, 408.4047292771748500, -5.000000000000004400 ) ) ;
#52 = PRESENTATION_LAYER_ASSIGNMENT (  '', '', ( #45 ) ) ;
#53 = ORIENTED_EDGE ( 'NONE', *, *, #33, .T. ) ;
#54 = PRODUCT_RELATED_PRODUCT_CATEGORY ( 'part', '', ( #85 ) ) ;
#55 = ORIENTED_EDGE ( 'NONE', *, *, #44, .T. ) ;
#56 = AXIS2_PLACEMENT_3D ( 'NONE', #82, #94, #106 ) ;
#57 =( NAMED_UNIT ( * ) PLANE_ANGLE_UNIT ( ) SI_UNIT ( $, .RADIAN. ) );
#58 = DIRECTION ( 'NONE',  ( 0.0000000000000000000, 0.0000000000000000000, 1.000000000000000000 ) ) ;
#59 = ADVANCED_BREP_SHAPE_REPRESENTATION ( '100021', ( #102, #11 ), #87 ) ;
#60 = AXIS2_PLACEMENT_3D ( 'NONE', #154, #95, #83 ) ;
#61 = TOROIDAL_SURFACE ( 'NONE', #60, 0.0004230403558014295100, 32.24085817022945800 ) ;
#62 = AXIS2_PLACEMENT_3D ( 'NONE', #75, #39, #113 ) ;
#63 = CARTESIAN_POINT ( 'NONE',  ( 1090.101384376666800, 408.4047292771748500, -4.999999999999962700 ) ) ;
#64 = EDGE_CURVE ( 'NONE', #107, #122, #112, .T. ) ;
#65 = CIRCLE ( 'NONE', #23, 5.000000000000004400 ) ;
#66 = AXIS2_PLACEMENT_3D ( 'NONE', #141, #89, #137 ) ;
#67 = SURFACE_STYLE_FILL_AREA ( #22 ) ;
#68 = EDGE_LOOP ( 'NONE', ( #53, #155, #37, #116 ) ) ;
#69 = PRESENTATION_LAYER_ASSIGNMENT (  '', '', ( #2 ) ) ;
#70 = CARTESIAN_POINT ( 'NONE',  ( 0.0000000000000000000, 0.0000000000000000000, 0.0000000000000000000 ) ) ;
#71 =( NAMED_UNIT ( * ) SI_UNIT ( $, .STERADIAN. ) SOLID_ANGLE_UNIT ( ) );
#72 = VECTOR ( 'NONE', #8, 1000.000000000000000 ) ;
#73 = DIRECTION ( 'NONE',  ( 0.0000000000000000000, -1.000000000000000000, 0.0000000000000000000 ) ) ;
#74 = FACE_OUTER_BOUND ( 'NONE', #68, .T. ) ;
#75 = CARTESIAN_POINT ( 'NONE',  ( 1087.359863802599400, 408.4047292771748500, 0.0000000000000000000 ) ) ;
#76 =( NAMED_UNIT ( * ) SI_UNIT ( $, .STERADIAN. ) SOLID_ANGLE_UNIT ( ) );
#77 = ADVANCED_FACE ( 'NONE', ( #165 ), #61, .T. ) ;
#78 = DIRECTION ( 'NONE',  ( -0.0000000000000000000, 1.000000000000000000, 1.224646799147353200E-016 ) ) ;
#79 = CIRCLE ( 'NONE', #123, 32.24085817022945800 ) ;
#80 = SURFACE_STYLE_FILL_AREA ( #161 ) ;
#81 = VECTOR ( 'NONE', #166, 1000.000000000000000 ) ;
#82 = CARTESIAN_POINT ( 'NONE',  ( 1058.250526212757900, 408.4047292771748500, 0.0000000000000000000 ) ) ;
#83 = DIRECTION ( 'NONE',  ( 0.0000000000000000000, 0.0000000000000000000, 1.000000000000000000 ) ) ;
#84 = ORIENTED_EDGE ( 'NONE', *, *, #33, .F. ) ;
#85 = PRODUCT ( '100021', '100021', '', ( #99 ) ) ;
#86 =( GEOMETRIC_REPRESENTATION_CONTEXT ( 3 ) GLOBAL_UNCERTAINTY_ASSIGNED_CONTEXT ( ( #144 ) ) GLOBAL_UNIT_ASSIGNED_CONTEXT ( ( #152, #13, #4 ) ) REPRESENTATION_CONTEXT ( 'NONE', 'WORKASPACE' ) );
#87 =( GEOMETRIC_REPRESENTATION_CONTEXT ( 3 ) GLOBAL_UNCERTAINTY_ASSIGNED_CONTEXT ( ( #27 ) ) GLOBAL_UNIT_ASSIGNED_CONTEXT ( ( #42, #151, #76 ) ) REPRESENTATION_CONTEXT ( 'NONE', 'WORKASPACE' ) );
#88 = ORIENTED_EDGE ( 'NONE', *, *, #19, .F. ) ;
#89 = DIRECTION ( 'NONE',  ( 1.000000000000000000, 0.0000000000000000000, 0.0000000000000000000 ) ) ;
#90 = ORIENTED_EDGE ( 'NONE', *, *, #19, .T. ) ;
#91 = DIRECTION ( 'NONE',  ( 0.0000000000000000000, 0.0000000000000000000, 1.000000000000000000 ) ) ;
#92 = AXIS2_PLACEMENT_3D ( 'NONE', #134, #73, #26 ) ;
#93 = CLOSED_SHELL ( 'NONE', ( #163, #77, #100, #43, #114 ) ) ;
#94 = DIRECTION ( 'NONE',  ( -1.000000000000000000, -0.0000000000000000000, -0.0000000000000000000 ) ) ;
#95 = DIRECTION ( 'NONE',  ( -1.000000000000000000, -0.0000000000000000000, -0.0000000000000000000 ) ) ;
#96 = EDGE_CURVE ( 'NONE', #47, #38, #1, .T. ) ;
#97 = CARTESIAN_POINT ( 'NONE',  ( 1087.359863802599400, 408.4047292771748500, 0.0000000000000000000 ) ) ;
#98 = PRESENTATION_STYLE_ASSIGNMENT (( #149 ) ) ;
#99 = PRODUCT_CONTEXT ( 'NONE', #14, 'mechanical' ) ;
#100 = ADVANCED_FACE ( 'NONE', ( #131 ), #103, .F. ) ;
#101 = DIRECTION ( 'NONE',  ( 0.0000000000000000000, 0.0000000000000000000, 1.000000000000000000 ) ) ;
#102 = MANIFOLD_SOLID_BREP ( 'Ðý×ª1', #93 ) ;
#103 = PLANE ( 'NONE',  #66 ) ;
#104 = COLOUR_RGB ( '',1.000000000000000000, 1.000000000000000000, 1.000000000000000000 ) ;
#105 = DIRECTION ( 'NONE',  ( 0.0000000000000000000, 0.0000000000000000000, 1.000000000000000000 ) ) ;
#106 = DIRECTION ( 'NONE',  ( 0.0000000000000000000, 0.0000000000000000000, 1.000000000000000000 ) ) ;
#107 = VERTEX_POINT ( 'NONE', #124 ) ;
#108 = PRODUCT_DEFINITION_FORMATION_WITH_SPECIFIED_SOURCE ( 'ÈÎºÎ', '', #85, .NOT_KNOWN. ) ;
#109 = EDGE_LOOP ( 'NONE', ( #29, #143, #48, #9 ) ) ;
#110 = SURFACE_SIDE_STYLE ('',( #80 ) ) ;
#111 = SURFACE_SIDE_STYLE ('',( #67 ) ) ;
#112 = LINE ( 'NONE', #142, #81 ) ;
#113 = DIRECTION ( 'NONE',  ( 0.0000000000000000000, 0.0000000000000000000, 1.000000000000000000 ) ) ;
#114 = ADVANCED_FACE ( 'NONE', ( #6 ), #41, .T. ) ;
#115 = CARTESIAN_POINT ( 'NONE',  ( 1088.591384376666800, 408.4047292771748500, 0.0000000000000000000 ) ) ;
#116 = ORIENTED_EDGE ( 'NONE', *, *, #64, .F. ) ;
#117 = AXIS2_PLACEMENT_3D ( 'NONE', #97, #24, #58 ) ;
#118 = UNCERTAINTY_MEASURE_WITH_UNIT (LENGTH_MEASURE( 1.000000000000000100E-005 ), #158, 'distance_accuracy_value', 'NONE');
#119 = EDGE_LOOP ( 'NONE', ( #88, #15, #20 ) ) ;
#120 = DIRECTION ( 'NONE',  ( -1.000000000000000000, -0.0000000000000000000, -0.0000000000000000000 ) ) ;
#121 = ORIENTED_EDGE ( 'NONE', *, *, #146, .T. ) ;
#122 = VERTEX_POINT ( 'NONE', #40 ) ;
#123 = AXIS2_PLACEMENT_3D ( 'NONE', #140, #78, #105 ) ;
#124 = CARTESIAN_POINT ( 'NONE',  ( 1090.101384376666800, 408.4047292771748500, 4.999999999999962700 ) ) ;
#125 = VERTEX_POINT ( 'NONE', #138 ) ;
#126 = APPLICATION_PROTOCOL_DEFINITION ( 'draft international standard', 'automotive_design', 1998, #14 ) ;
#127 = DIRECTION ( 'NONE',  ( 0.0000000000000000000, 0.0000000000000000000, 1.000000000000000000 ) ) ;
#128 = DIRECTION ( 'NONE',  ( -1.000000000000000000, -0.0000000000000000000, -0.0000000000000000000 ) ) ;
#129 = CYLINDRICAL_SURFACE ( 'NONE', #62, 5.000000000000004400 ) ;
#130 = EDGE_CURVE ( 'NONE', #125, #107, #21, .T. ) ;
#131 = FACE_OUTER_BOUND ( 'NONE', #145, .T. ) ;
#132 =( GEOMETRIC_REPRESENTATION_CONTEXT ( 3 ) GLOBAL_UNCERTAINTY_ASSIGNED_CONTEXT ( ( #118 ) ) GLOBAL_UNIT_ASSIGNED_CONTEXT ( ( #158, #57, #71 ) ) REPRESENTATION_CONTEXT ( 'NONE', 'WORKASPACE' ) );
#133 = ORIENTED_EDGE ( 'NONE', *, *, #130, .F. ) ;
#134 = CARTESIAN_POINT ( 'NONE',  ( 1058.250526212757900, 408.4047292771748500, 0.0004230403558014295100 ) ) ;
#135 = MECHANICAL_DESIGN_GEOMETRIC_PRESENTATION_REPRESENTATION (  '', ( #2 ), #86 ) ;
#136 = DIRECTION ( 'NONE',  ( 0.0000000000000000000, 0.0000000000000000000, 1.000000000000000000 ) ) ;
#137 = DIRECTION ( 'NONE',  ( 0.0000000000000000000, 0.0000000000000000000, -1.000000000000000000 ) ) ;
#138 = CARTESIAN_POINT ( 'NONE',  ( 1090.491384380211900, 408.4047292771727500, 0.0000000000000000000 ) ) ;
#139 = MECHANICAL_DESIGN_GEOMETRIC_PRESENTATION_REPRESENTATION (  '', ( #45 ), #132 ) ;
#140 = CARTESIAN_POINT ( 'NONE',  ( 1058.250526212757900, 408.4047292771748500, -0.0004230403558014295100 ) ) ;
#141 = CARTESIAN_POINT ( 'NONE',  ( 1088.591384376666800, 408.4047292771748500, 0.0000000000000000000 ) ) ;
#142 = CARTESIAN_POINT ( 'NONE',  ( 1087.359863802599400, 408.4047292771748500, 5.000000000000004400 ) ) ;
#143 = ORIENTED_EDGE ( 'NONE', *, *, #12, .T. ) ;
#144 = UNCERTAINTY_MEASURE_WITH_UNIT (LENGTH_MEASURE( 1.000000000000000100E-005 ), #152, 'distance_accuracy_value', 'NONE');
#145 = EDGE_LOOP ( 'NONE', ( #121, #55 ) ) ;
#146 = EDGE_CURVE ( 'NONE', #122, #38, #18, .T. ) ;
#147 = DIRECTION ( 'NONE',  ( -1.000000000000000000, -0.0000000000000000000, -0.0000000000000000000 ) ) ;
#148 = FACE_OUTER_BOUND ( 'NONE', #119, .T. ) ;
#149 = SURFACE_STYLE_USAGE ( .BOTH. , #111 ) ;
#150 = DIRECTION ( 'NONE',  ( 1.000000000000000000, 0.0000000000000000000, 0.0000000000000000000 ) ) ;
#151 =( NAMED_UNIT ( * ) PLANE_ANGLE_UNIT ( ) SI_UNIT ( $, .RADIAN. ) );
#152 =( LENGTH_UNIT ( ) NAMED_UNIT ( * ) SI_UNIT ( .MILLI., .METRE. ) );
#153 = PRODUCT_DEFINITION_SHAPE ( 'NONE', 'NONE',  #31 ) ;
#154 = CARTESIAN_POINT ( 'NONE',  ( 1058.250526212757900, 408.4047292771748500, 0.0000000000000000000 ) ) ;
#155 = ORIENTED_EDGE ( 'NONE', *, *, #96, .T. ) ;
#156 = AXIS2_PLACEMENT_3D ( 'NONE', #115, #147, #136 ) ;
#157 = PRESENTATION_STYLE_ASSIGNMENT (( #25 ) ) ;
#158 =( LENGTH_UNIT ( ) NAMED_UNIT ( * ) SI_UNIT ( .MILLI., .METRE. ) );
#159 = AXIS2_PLACEMENT_3D ( 'NONE', #46, #162, #101 ) ;
#160 = FILL_AREA_STYLE_COLOUR ( '', #49 ) ;
#161 = FILL_AREA_STYLE ('',( #160 ) ) ;
#162 = DIRECTION ( 'NONE',  ( -1.000000000000000000, -0.0000000000000000000, -0.0000000000000000000 ) ) ;
#163 = ADVANCED_FACE ( 'NONE', ( #74 ), #129, .T. ) ;
#164 = EDGE_LOOP ( 'NONE', ( #133, #90, #84 ) ) ;
#165 = FACE_OUTER_BOUND ( 'NONE', #164, .T. ) ;
#166 = DIRECTION ( 'NONE',  ( -1.000000000000000000, -0.0000000000000000000, -0.0000000000000000000 ) ) ;
ENDSEC;
END-ISO-10303-21;
