ISO-10303-21;
HEADER;
FILE_DESCRIPTION (( 'STEP AP214' ),
    '1' );
FILE_NAME ('100017.STEP',
    '2019-04-19T07:58:01',
    ( '' ),
    ( '' ),
    'SwSTEP 2.0',
    'SolidWorks 2016',
    '' );
FILE_SCHEMA (( 'AUTOMOTIVE_DESIGN' ));
ENDSEC;

DATA;
#1 = CIRCLE ( 'NONE', #154, 4.999999999999893400 ) ;
#2 = PRODUCT_CONTEXT ( 'NONE', #166, 'mechanical' ) ;
#3 = PRODUCT_DEFINITION_FORMATION_WITH_SPECIFIED_SOURCE ( 'ÈÎºÎ', '', #66, .NOT_KNOWN. ) ;
#4 = AXIS2_PLACEMENT_3D ( 'NONE', #64, #78, #158 ) ;
#5 = CYLINDRICAL_SURFACE ( 'NONE', #137, 4.999999999999921000 ) ;
#6 = PRODUCT_DEFINITION_SHAPE ( 'NONE', 'NONE',  #34 ) ;
#7 = AXIS2_PLACEMENT_3D ( 'NONE', #92, #164, #80 ) ;
#8 = ORIENTED_EDGE ( 'NONE', *, *, #36, .T. ) ;
#9 =( NAMED_UNIT ( * ) SI_UNIT ( $, .STERADIAN. ) SOLID_ANGLE_UNIT ( ) );
#10 = SPHERICAL_SURFACE ( 'NONE', #159, 12.88123762376227400 ) ;
#11 = SURFACE_SIDE_STYLE ('',( #15 ) ) ;
#12 = CIRCLE ( 'NONE', #4, 4.999999999999948500 ) ;
#13 = ORIENTED_EDGE ( 'NONE', *, *, #100, .T. ) ;
#14 = EDGE_CURVE ( 'NONE', #146, #37, #12, .T. ) ;
#15 = SURFACE_STYLE_FILL_AREA ( #111 ) ;
#16 = CARTESIAN_POINT ( 'NONE',  ( 693.5537082629340400, 248.2747195439236500, -6.123233995736018800E-016 ) ) ;
#17 = EDGE_LOOP ( 'NONE', ( #138, #8, #13 ) ) ;
#18 = SURFACE_STYLE_USAGE ( .BOTH. , #145 ) ;
#19 = CARTESIAN_POINT ( 'NONE',  ( 681.6824706391718100, 243.2747195439236800, 0.0000000000000000000 ) ) ;
#20 = PLANE ( 'NONE',  #53 ) ;
#21 = DIRECTION ( 'NONE',  ( 0.0000000000000000000, 0.0000000000000000000, 1.000000000000000000 ) ) ;
#22 = PRODUCT_RELATED_PRODUCT_CATEGORY ( 'part', '', ( #66 ) ) ;
#23 = AXIS2_PLACEMENT_3D ( 'NONE', #95, #21, #109 ) ;
#24 = ADVANCED_FACE ( 'NONE', ( #32 ), #142, .T. ) ;
#25 = EDGE_CURVE ( 'NONE', #101, #49, #86, .T. ) ;
#26 = ORIENTED_EDGE ( 'NONE', *, *, #157, .T. ) ;
#27 = CARTESIAN_POINT ( 'NONE',  ( 692.0637082629344800, 238.2747195439237400, 6.123233995736755400E-016 ) ) ;
#28 = DIRECTION ( 'NONE',  ( 1.000000000000000000, 5.062983366485605400E-014, -0.0000000000000000000 ) ) ;
#29 = DIRECTION ( 'NONE',  ( -4.440892098500720800E-014, 1.000000000000000000, 0.0000000000000000000 ) ) ;
#30 = DIRECTION ( 'NONE',  ( 0.0000000000000000000, 0.0000000000000000000, -1.000000000000000000 ) ) ;
#31 = COLOUR_RGB ( '',1.000000000000000000, 1.000000000000000000, 1.000000000000000000 ) ;
#32 = FACE_OUTER_BOUND ( 'NONE', #62, .T. ) ;
#33 =( LENGTH_UNIT ( ) NAMED_UNIT ( * ) SI_UNIT ( .MILLI., .METRE. ) );
#34 = PRODUCT_DEFINITION ( 'Î´Öª', '', #3, #87 ) ;
#35 = VECTOR ( 'NONE', #57, 1000.000000000000000 ) ;
#36 = EDGE_CURVE ( 'NONE', #49, #101, #1, .T. ) ;
#37 = VERTEX_POINT ( 'NONE', #27 ) ;
#38 = FACE_OUTER_BOUND ( 'NONE', #160, .T. ) ;
#39 = DIRECTION ( 'NONE',  ( 1.000000000000000000, 5.062983366485605400E-014, -0.0000000000000000000 ) ) ;
#40 = DIRECTION ( 'NONE',  ( -4.440892098500720800E-014, 1.000000000000000000, 0.0000000000000000000 ) ) ;
#41 = UNCERTAINTY_MEASURE_WITH_UNIT (LENGTH_MEASURE( 1.000000000000000100E-005 ), #128, 'distance_accuracy_value', 'NONE');
#42 = DIRECTION ( 'NONE',  ( 5.171349479232207700E-014, -1.000000000000000000, 0.0000000000000000000 ) ) ;
#43 = AXIS2_PLACEMENT_3D ( 'NONE', #89, #30, #120 ) ;
#44 = UNCERTAINTY_MEASURE_WITH_UNIT (LENGTH_MEASURE( 1.000000000000000100E-005 ), #33, 'distance_accuracy_value', 'NONE');
#45 = CARTESIAN_POINT ( 'NONE',  ( 692.0637082629340300, 248.2747195439236500, 0.0000000000000000000 ) ) ;
#46 = CARTESIAN_POINT ( 'NONE',  ( 695.0731128900167700, 248.2747195439237700, 0.0000000000000000000 ) ) ;
#47 = ORIENTED_EDGE ( 'NONE', *, *, #135, .F. ) ;
#48 =( GEOMETRIC_REPRESENTATION_CONTEXT ( 3 ) GLOBAL_UNCERTAINTY_ASSIGNED_CONTEXT ( ( #141 ) ) GLOBAL_UNIT_ASSIGNED_CONTEXT ( ( #122, #96, #9 ) ) REPRESENTATION_CONTEXT ( 'NONE', 'WORKASPACE' ) );
#49 = VERTEX_POINT ( 'NONE', #16 ) ;
#50 = ADVANCED_FACE ( 'NONE', ( #38 ), #5, .T. ) ;
#51 = MECHANICAL_DESIGN_GEOMETRIC_PRESENTATION_REPRESENTATION (  '', ( #162 ), #70 ) ;
#52 = ORIENTED_EDGE ( 'NONE', *, *, #131, .T. ) ;
#53 = AXIS2_PLACEMENT_3D ( 'NONE', #126, #56, #119 ) ;
#54 = CARTESIAN_POINT ( 'NONE',  ( 694.5637082629340300, 243.2747195439243300, 0.0000000000000000000 ) ) ;
#55 = CARTESIAN_POINT ( 'NONE',  ( 693.5537082629344900, 238.2747195439243600, 0.0000000000000000000 ) ) ;
#56 = DIRECTION ( 'NONE',  ( -1.000000000000000000, -5.062983366485605400E-014, 0.0000000000000000000 ) ) ;
#57 = DIRECTION ( 'NONE',  ( 1.000000000000000000, 5.062983366485605400E-014, -0.0000000000000000000 ) ) ;
#58 = FILL_AREA_STYLE_COLOUR ( '', #156 ) ;
#59 =( GEOMETRIC_REPRESENTATION_CONTEXT ( 3 ) GLOBAL_UNCERTAINTY_ASSIGNED_CONTEXT ( ( #44 ) ) GLOBAL_UNIT_ASSIGNED_CONTEXT ( ( #33, #72, #151 ) ) REPRESENTATION_CONTEXT ( 'NONE', 'WORKASPACE' ) );
#60 = DIRECTION ( 'NONE',  ( 1.000000000000000000, 5.062983366485605400E-014, -0.0000000000000000000 ) ) ;
#61 = LINE ( 'NONE', #46, #35 ) ;
#62 = EDGE_LOOP ( 'NONE', ( #114, #26, #117, #76 ) ) ;
#63 = PRESENTATION_LAYER_ASSIGNMENT (  '', '', ( #99 ) ) ;
#64 = CARTESIAN_POINT ( 'NONE',  ( 692.0637082629342600, 243.2747195439237100, 0.0000000000000000000 ) ) ;
#65 = FACE_OUTER_BOUND ( 'NONE', #110, .T. ) ;
#66 = PRODUCT ( '100017', '100017', '', ( #2 ) ) ;
#67 = VERTEX_POINT ( 'NONE', #54 ) ;
#68 = ADVANCED_FACE ( 'NONE', ( #124 ), #130, .T. ) ;
#69 =( NAMED_UNIT ( * ) PLANE_ANGLE_UNIT ( ) SI_UNIT ( $, .RADIAN. ) );
#70 =( GEOMETRIC_REPRESENTATION_CONTEXT ( 3 ) GLOBAL_UNCERTAINTY_ASSIGNED_CONTEXT ( ( #41 ) ) GLOBAL_UNIT_ASSIGNED_CONTEXT ( ( #128, #69, #163 ) ) REPRESENTATION_CONTEXT ( 'NONE', 'WORKASPACE' ) );
#71 = CARTESIAN_POINT ( 'NONE',  ( 695.0731128900168900, 243.2747195439238500, 0.0000000000000000000 ) ) ;
#72 =( NAMED_UNIT ( * ) PLANE_ANGLE_UNIT ( ) SI_UNIT ( $, .RADIAN. ) );
#73 = PRESENTATION_LAYER_ASSIGNMENT (  '', '', ( #162 ) ) ;
#74 = APPLICATION_PROTOCOL_DEFINITION ( 'draft international standard', 'automotive_design', 1998, #150 ) ;
#75 = DIRECTION ( 'NONE',  ( -4.440892098500672200E-014, 1.000000000000000000, 0.0000000000000000000 ) ) ;
#76 = ORIENTED_EDGE ( 'NONE', *, *, #25, .F. ) ;
#77 = DIRECTION ( 'NONE',  ( -4.440892098500696200E-014, 1.000000000000000000, 0.0000000000000000000 ) ) ;
#78 = DIRECTION ( 'NONE',  ( 1.000000000000000000, 5.062983366485605400E-014, -0.0000000000000000000 ) ) ;
#79 = CIRCLE ( 'NONE', #147, 4.999999999999948500 ) ;
#80 = DIRECTION ( 'NONE',  ( 1.000000000000000000, 0.0000000000000000000, 0.0000000000000000000 ) ) ;
#81 = DIRECTION ( 'NONE',  ( 1.000000000000000000, 5.062983366485605400E-014, -0.0000000000000000000 ) ) ;
#82 = ORIENTED_EDGE ( 'NONE', *, *, #36, .F. ) ;
#83 = CARTESIAN_POINT ( 'NONE',  ( 681.6824706391718100, 243.2747195439236800, 0.0000000000000000000 ) ) ;
#84 = DIRECTION ( 'NONE',  ( 0.0000000000000000000, 1.000000000000000000, -1.224646799147352700E-016 ) ) ;
#85 = MECHANICAL_DESIGN_GEOMETRIC_PRESENTATION_REPRESENTATION (  '', ( #99 ), #48 ) ;
#86 = CIRCLE ( 'NONE', #143, 4.999999999999893400 ) ;
#87 = PRODUCT_DEFINITION_CONTEXT ( 'detailed design', #150, 'design' ) ;
#88 = CARTESIAN_POINT ( 'NONE',  ( 695.0731128900168900, 243.2747195439238500, 0.0000000000000000000 ) ) ;
#89 = CARTESIAN_POINT ( 'NONE',  ( 681.6824706391718100, 243.2747195439236800, 0.0000000000000000000 ) ) ;
#90 = CIRCLE ( 'NONE', #121, 12.88123762376228100 ) ;
#91 = DIRECTION ( 'NONE',  ( -4.440892098500696200E-014, 1.000000000000000000, 0.0000000000000000000 ) ) ;
#92 = CARTESIAN_POINT ( 'NONE',  ( 681.6824706391718100, 243.2747195439236800, 0.0000000000000000000 ) ) ;
#93 = CARTESIAN_POINT ( 'NONE',  ( 693.5537082629342600, 243.2747195439237700, 0.0000000000000000000 ) ) ;
#94 = ORIENTED_EDGE ( 'NONE', *, *, #157, .F. ) ;
#95 = CARTESIAN_POINT ( 'NONE',  ( 0.0000000000000000000, 0.0000000000000000000, 0.0000000000000000000 ) ) ;
#96 =( NAMED_UNIT ( * ) PLANE_ANGLE_UNIT ( ) SI_UNIT ( $, .RADIAN. ) );
#97 = SURFACE_STYLE_FILL_AREA ( #165 ) ;
#98 = SURFACE_STYLE_USAGE ( .BOTH. , #11 ) ;
#99 = STYLED_ITEM ( 'NONE', ( #139 ), #107 ) ;
#100 = EDGE_CURVE ( 'NONE', #101, #67, #127, .T. ) ;
#101 = VERTEX_POINT ( 'NONE', #55 ) ;
#102 = ORIENTED_EDGE ( 'NONE', *, *, #14, .F. ) ;
#103 = CARTESIAN_POINT ( 'NONE',  ( 695.0731128900171100, 238.2747195439239400, 6.123233995736669600E-016 ) ) ;
#104 = SHAPE_DEFINITION_REPRESENTATION ( #6, #107 ) ;
#105 = EDGE_LOOP ( 'NONE', ( #140, #52, #134 ) ) ;
#106 = FILL_AREA_STYLE_COLOUR ( '', #31 ) ;
#107 = ADVANCED_BREP_SHAPE_REPRESENTATION ( '100017', ( #129, #23 ), #59 ) ;
#108 = AXIS2_PLACEMENT_3D ( 'NONE', #88, #28, #77 ) ;
#109 = DIRECTION ( 'NONE',  ( 1.000000000000000000, 0.0000000000000000000, 0.0000000000000000000 ) ) ;
#110 = EDGE_LOOP ( 'NONE', ( #102, #94 ) ) ;
#111 = FILL_AREA_STYLE ('',( #58 ) ) ;
#112 = EDGE_CURVE ( 'NONE', #37, #101, #153, .T. ) ;
#113 = ORIENTED_EDGE ( 'NONE', *, *, #14, .T. ) ;
#114 = ORIENTED_EDGE ( 'NONE', *, *, #112, .F. ) ;
#115 = CARTESIAN_POINT ( 'NONE',  ( 693.5537082629342600, 243.2747195439237700, 0.0000000000000000000 ) ) ;
#116 = VECTOR ( 'NONE', #161, 1000.000000000000000 ) ;
#117 = ORIENTED_EDGE ( 'NONE', *, *, #135, .T. ) ;
#118 = DIRECTION ( 'NONE',  ( 1.000000000000000000, 5.062983366485605400E-014, -0.0000000000000000000 ) ) ;
#119 = DIRECTION ( 'NONE',  ( 5.062983366485605400E-014, -1.000000000000000000, 0.0000000000000000000 ) ) ;
#120 = DIRECTION ( 'NONE',  ( 5.171349479232207700E-014, -1.000000000000000000, 0.0000000000000000000 ) ) ;
#121 = AXIS2_PLACEMENT_3D ( 'NONE', #83, #132, #84 ) ;
#122 =( LENGTH_UNIT ( ) NAMED_UNIT ( * ) SI_UNIT ( .MILLI., .METRE. ) );
#123 = ADVANCED_FACE ( 'NONE', ( #65 ), #20, .T. ) ;
#124 = FACE_OUTER_BOUND ( 'NONE', #105, .T. ) ;
#125 = ORIENTED_EDGE ( 'NONE', *, *, #112, .T. ) ;
#126 = CARTESIAN_POINT ( 'NONE',  ( 692.0637082629341400, 243.2747195439236500, 0.0000000000000000000 ) ) ;
#127 = CIRCLE ( 'NONE', #7, 12.88123762376225300 ) ;
#128 =( LENGTH_UNIT ( ) NAMED_UNIT ( * ) SI_UNIT ( .MILLI., .METRE. ) );
#129 = MANIFOLD_SOLID_BREP ( 'Ðý×ª1', #144 ) ;
#130 = SPHERICAL_SURFACE ( 'NONE', #43, 12.88123762376227400 ) ;
#131 = EDGE_CURVE ( 'NONE', #49, #67, #90, .T. ) ;
#132 = DIRECTION ( 'NONE',  ( 6.200366373902887400E-030, -1.224646799147353200E-016, -1.000000000000000000 ) ) ;
#133 = APPLICATION_PROTOCOL_DEFINITION ( 'draft international standard', 'automotive_design', 1998, #166 ) ;
#134 = ORIENTED_EDGE ( 'NONE', *, *, #100, .F. ) ;
#135 = EDGE_CURVE ( 'NONE', #146, #49, #61, .T. ) ;
#136 = FACE_OUTER_BOUND ( 'NONE', #17, .T. ) ;
#137 = AXIS2_PLACEMENT_3D ( 'NONE', #71, #81, #91 ) ;
#138 = ORIENTED_EDGE ( 'NONE', *, *, #131, .F. ) ;
#139 = PRESENTATION_STYLE_ASSIGNMENT (( #98 ) ) ;
#140 = ORIENTED_EDGE ( 'NONE', *, *, #25, .T. ) ;
#141 = UNCERTAINTY_MEASURE_WITH_UNIT (LENGTH_MEASURE( 1.000000000000000100E-005 ), #122, 'distance_accuracy_value', 'NONE');
#142 = CYLINDRICAL_SURFACE ( 'NONE', #108, 4.999999999999921000 ) ;
#143 = AXIS2_PLACEMENT_3D ( 'NONE', #115, #118, #40 ) ;
#144 = CLOSED_SHELL ( 'NONE', ( #50, #68, #155, #24, #123 ) ) ;
#145 = SURFACE_SIDE_STYLE ('',( #97 ) ) ;
#146 = VERTEX_POINT ( 'NONE', #45 ) ;
#147 = AXIS2_PLACEMENT_3D ( 'NONE', #149, #60, #75 ) ;
#148 = DIRECTION ( 'NONE',  ( 0.0000000000000000000, 0.0000000000000000000, -1.000000000000000000 ) ) ;
#149 = CARTESIAN_POINT ( 'NONE',  ( 692.0637082629342600, 243.2747195439237100, 0.0000000000000000000 ) ) ;
#150 = APPLICATION_CONTEXT ( 'automotive_design' ) ;
#151 =( NAMED_UNIT ( * ) SI_UNIT ( $, .STERADIAN. ) SOLID_ANGLE_UNIT ( ) );
#152 = PRESENTATION_STYLE_ASSIGNMENT (( #18 ) ) ;
#153 = LINE ( 'NONE', #103, #116 ) ;
#154 = AXIS2_PLACEMENT_3D ( 'NONE', #93, #39, #29 ) ;
#155 = ADVANCED_FACE ( 'NONE', ( #136 ), #10, .T. ) ;
#156 = COLOUR_RGB ( '',1.000000000000000000, 1.000000000000000000, 1.000000000000000000 ) ;
#157 = EDGE_CURVE ( 'NONE', #37, #146, #79, .T. ) ;
#158 = DIRECTION ( 'NONE',  ( -4.440892098500672200E-014, 1.000000000000000000, 0.0000000000000000000 ) ) ;
#159 = AXIS2_PLACEMENT_3D ( 'NONE', #19, #148, #42 ) ;
#160 = EDGE_LOOP ( 'NONE', ( #113, #125, #82, #47 ) ) ;
#161 = DIRECTION ( 'NONE',  ( 1.000000000000000000, 5.062983366485605400E-014, -0.0000000000000000000 ) ) ;
#162 = STYLED_ITEM ( 'NONE', ( #152 ), #129 ) ;
#163 =( NAMED_UNIT ( * ) SI_UNIT ( $, .STERADIAN. ) SOLID_ANGLE_UNIT ( ) );
#164 = DIRECTION ( 'NONE',  ( 0.0000000000000000000, 0.0000000000000000000, 1.000000000000000000 ) ) ;
#165 = FILL_AREA_STYLE ('',( #106 ) ) ;
#166 = APPLICATION_CONTEXT ( 'automotive_design' ) ;
ENDSEC;
END-ISO-10303-21;
