ISO-10303-21;
HEADER;
FILE_DESCRIPTION (( 'STEP AP214' ),
    '1' );
FILE_NAME ('100007.STEP',
    '2019-04-19T05:45:45',
    ( '' ),
    ( '' ),
    'SwSTEP 2.0',
    'SolidWorks 2016',
    '' );
FILE_SCHEMA (( 'AUTOMOTIVE_DESIGN' ));
ENDSEC;

DATA;
#1 = SURFACE_STYLE_FILL_AREA ( #114 ) ;
#2 = CARTESIAN_POINT ( 'NONE',  ( 488.4974858266564300, 146.8187824633147600, 0.0000000000000000000 ) ) ;
#3 = ADVANCED_FACE ( 'NONE', ( #7 ), #120, .T. ) ;
#4 = AXIS2_PLACEMENT_3D ( 'NONE', #16, #108, #42 ) ;
#5 = DIRECTION ( 'NONE',  ( 0.0000000000000000000, 1.000000000000000000, 1.224646799147356400E-016 ) ) ;
#6 = APPLICATION_CONTEXT ( 'automotive_design' ) ;
#7 = FACE_OUTER_BOUND ( 'NONE', #38, .T. ) ;
#8 =( NAMED_UNIT ( * ) SI_UNIT ( $, .STERADIAN. ) SOLID_ANGLE_UNIT ( ) );
#9 =( GEOMETRIC_REPRESENTATION_CONTEXT ( 3 ) GLOBAL_UNCERTAINTY_ASSIGNED_CONTEXT ( ( #32 ) ) GLOBAL_UNIT_ASSIGNED_CONTEXT ( ( #30, #69, #172 ) ) REPRESENTATION_CONTEXT ( 'NONE', 'WORKASPACE' ) );
#10 = AXIS2_PLACEMENT_3D ( 'NONE', #174, #156, #58 ) ;
#11 = CIRCLE ( 'NONE', #73, 3.149999999999958600 ) ;
#12 = AXIS2_PLACEMENT_3D ( 'NONE', #14, #104, #28 ) ;
#13 = EDGE_CURVE ( 'NONE', #159, #109, #56, .T. ) ;
#14 = CARTESIAN_POINT ( 'NONE',  ( 486.9674858266564000, 143.6687824633147800, 0.0000000000000000000 ) ) ;
#15 = CARTESIAN_POINT ( 'NONE',  ( 486.4778278430625300, 143.6687824633147800, 0.0000000000000000000 ) ) ;
#16 = CARTESIAN_POINT ( 'NONE',  ( 484.3958035836657200, 143.6687824633147600, 0.0000000000000000000 ) ) ;
#17 = DIRECTION ( 'NONE',  ( -1.000000000000000000, -0.0000000000000000000, -0.0000000000000000000 ) ) ;
#18 = ORIENTED_EDGE ( 'NONE', *, *, #167, .T. ) ;
#19 = PRODUCT_RELATED_PRODUCT_CATEGORY ( 'part', '', ( #54 ) ) ;
#20 = DIRECTION ( 'NONE',  ( 0.0000000000000000000, 0.0000000000000000000, 1.000000000000000000 ) ) ;
#21 = SPHERICAL_SURFACE ( 'NONE', #168, 5.171682242990678800 ) ;
#22 = EDGE_LOOP ( 'NONE', ( #150, #89, #170, #154 ) ) ;
#23 = EDGE_CURVE ( 'NONE', #109, #159, #11, .T. ) ;
#24 = CIRCLE ( 'NONE', #115, 5.171682242990693900 ) ;
#25 = AXIS2_PLACEMENT_3D ( 'NONE', #15, #157, #105 ) ;
#26 = VERTEX_POINT ( 'NONE', #136 ) ;
#27 = CARTESIAN_POINT ( 'NONE',  ( 486.4778278430625300, 143.6687824633147800, 0.0000000000000000000 ) ) ;
#28 = DIRECTION ( 'NONE',  ( 0.0000000000000000000, 0.0000000000000000000, 1.000000000000000000 ) ) ;
#29 = PRESENTATION_STYLE_ASSIGNMENT (( #45 ) ) ;
#30 =( LENGTH_UNIT ( ) NAMED_UNIT ( * ) SI_UNIT ( .MILLI., .METRE. ) );
#31 = MANIFOLD_SOLID_BREP ( 'Ðý×ª2', #113 ) ;
#32 = UNCERTAINTY_MEASURE_WITH_UNIT (LENGTH_MEASURE( 1.000000000000000100E-005 ), #30, 'distance_accuracy_value', 'NONE');
#33 = PRODUCT_DEFINITION_CONTEXT ( 'detailed design', #44, 'design' ) ;
#34 = DIRECTION ( 'NONE',  ( -1.000000000000000000, -0.0000000000000000000, -0.0000000000000000000 ) ) ;
#35 = CIRCLE ( 'NONE', #39, 3.149999999999958600 ) ;
#36 = FILL_AREA_STYLE_COLOUR ( '', #91 ) ;
#37 = SPHERICAL_SURFACE ( 'NONE', #4, 5.171682242990678800 ) ;
#38 = EDGE_LOOP ( 'NONE', ( #151, #186, #92, #18, #85 ) ) ;
#39 = AXIS2_PLACEMENT_3D ( 'NONE', #130, #70, #20 ) ;
#40 = ORIENTED_EDGE ( 'NONE', *, *, #167, .F. ) ;
#41 = EDGE_CURVE ( 'NONE', #164, #149, #161, .T. ) ;
#42 = DIRECTION ( 'NONE',  ( 0.0000000000000000000, 1.000000000000000000, 0.0000000000000000000 ) ) ;
#43 = PRESENTATION_LAYER_ASSIGNMENT (  '', '', ( #86 ) ) ;
#44 = APPLICATION_CONTEXT ( 'automotive_design' ) ;
#45 = SURFACE_STYLE_USAGE ( .BOTH. , #46 ) ;
#46 = SURFACE_SIDE_STYLE ('',( #163 ) ) ;
#47 = VECTOR ( 'NONE', #17, 1000.000000000000000 ) ;
#48 = ORIENTED_EDGE ( 'NONE', *, *, #133, .F. ) ;
#49 = ADVANCED_FACE ( 'NONE', ( #72 ), #158, .F. ) ;
#50 = ADVANCED_FACE ( 'NONE', ( #184 ), #21, .T. ) ;
#51 = ORIENTED_EDGE ( 'NONE', *, *, #13, .T. ) ;
#52 = CARTESIAN_POINT ( 'NONE',  ( 488.4974858266564300, 143.6687824633147800, 0.0000000000000000000 ) ) ;
#53 = PRODUCT_DEFINITION ( 'Î´Öª', '', #131, #33 ) ;
#54 = PRODUCT ( '100007', '100007', '', ( #77 ) ) ;
#55 = CIRCLE ( 'NONE', #162, 3.149999999999958600 ) ;
#56 = CIRCLE ( 'NONE', #12, 3.149999999999958600 ) ;
#57 =( NAMED_UNIT ( * ) SI_UNIT ( $, .STERADIAN. ) SOLID_ANGLE_UNIT ( ) );
#58 = DIRECTION ( 'NONE',  ( 0.0000000000000000000, 0.0000000000000000000, -1.000000000000000000 ) ) ;
#59 =( LENGTH_UNIT ( ) NAMED_UNIT ( * ) SI_UNIT ( .MILLI., .METRE. ) );
#60 = FILL_AREA_STYLE ('',( #101 ) ) ;
#61 = CARTESIAN_POINT ( 'NONE',  ( 486.9674858266564000, 143.6687824633147800, 3.149999999999958600 ) ) ;
#62 = CARTESIAN_POINT ( 'NONE',  ( 486.9674858266564000, 143.6687824633147800, 0.0000000000000000000 ) ) ;
#63 = VERTEX_POINT ( 'NONE', #2 ) ;
#64 = CIRCLE ( 'NONE', #106, 5.171682242990666400 ) ;
#65 = VERTEX_POINT ( 'NONE', #110 ) ;
#66 = DIRECTION ( 'NONE',  ( -1.000000000000000000, -0.0000000000000000000, -0.0000000000000000000 ) ) ;
#67 = APPLICATION_PROTOCOL_DEFINITION ( 'draft international standard', 'automotive_design', 1998, #44 ) ;
#68 = DIRECTION ( 'NONE',  ( 0.0000000000000000000, 0.0000000000000000000, 1.000000000000000000 ) ) ;
#69 =( NAMED_UNIT ( * ) PLANE_ANGLE_UNIT ( ) SI_UNIT ( $, .RADIAN. ) );
#70 = DIRECTION ( 'NONE',  ( -1.000000000000000000, -0.0000000000000000000, -0.0000000000000000000 ) ) ;
#71 = ORIENTED_EDGE ( 'NONE', *, *, #23, .T. ) ;
#72 = FACE_OUTER_BOUND ( 'NONE', #83, .T. ) ;
#73 = AXIS2_PLACEMENT_3D ( 'NONE', #62, #66, #68 ) ;
#74 = SHAPE_DEFINITION_REPRESENTATION ( #98, #182 ) ;
#75 = ORIENTED_EDGE ( 'NONE', *, *, #133, .T. ) ;
#76 = MECHANICAL_DESIGN_GEOMETRIC_PRESENTATION_REPRESENTATION (  '', ( #134 ), #183 ) ;
#77 = PRODUCT_CONTEXT ( 'NONE', #6, 'mechanical' ) ;
#78 = COLOUR_RGB ( '',1.000000000000000000, 1.000000000000000000, 1.000000000000000000 ) ;
#79 = CARTESIAN_POINT ( 'NONE',  ( 486.9674858266564000, 143.6687824633147800, -3.149999999999958600 ) ) ;
#80 = CARTESIAN_POINT ( 'NONE',  ( 488.4974858266564300, 143.6687824633147800, 0.0000000000000000000 ) ) ;
#81 = DIRECTION ( 'NONE',  ( -0.0000000000000000000, 0.0000000000000000000, -1.000000000000000000 ) ) ;
#82 = DIRECTION ( 'NONE',  ( -0.0000000000000000000, 0.0000000000000000000, 1.000000000000000000 ) ) ;
#83 = EDGE_LOOP ( 'NONE', ( #51, #71 ) ) ;
#84 =( NAMED_UNIT ( * ) PLANE_ANGLE_UNIT ( ) SI_UNIT ( $, .RADIAN. ) );
#85 = ORIENTED_EDGE ( 'NONE', *, *, #23, .F. ) ;
#86 = STYLED_ITEM ( 'NONE', ( #29 ), #31 ) ;
#87 = EDGE_CURVE ( 'NONE', #26, #149, #64, .T. ) ;
#88 = LINE ( 'NONE', #143, #103 ) ;
#89 = ORIENTED_EDGE ( 'NONE', *, *, #87, .T. ) ;
#90 = AXIS2_PLACEMENT_3D ( 'NONE', #145, #34, #126 ) ;
#91 = COLOUR_RGB ( '',1.000000000000000000, 1.000000000000000000, 1.000000000000000000 ) ;
#92 = ORIENTED_EDGE ( 'NONE', *, *, #180, .T. ) ;
#93 = CARTESIAN_POINT ( 'NONE',  ( 484.3958035836657200, 143.6687824633147600, 0.0000000000000000000 ) ) ;
#94 = DIRECTION ( 'NONE',  ( -1.000000000000000000, -0.0000000000000000000, -0.0000000000000000000 ) ) ;
#95 = AXIS2_PLACEMENT_3D ( 'NONE', #52, #140, #139 ) ;
#96 = DIRECTION ( 'NONE',  ( -1.000000000000000000, -0.0000000000000000000, -0.0000000000000000000 ) ) ;
#97 = EDGE_LOOP ( 'NONE', ( #165, #123, #148, #40, #75 ) ) ;
#98 = PRODUCT_DEFINITION_SHAPE ( 'NONE', 'NONE',  #53 ) ;
#99 = ORIENTED_EDGE ( 'NONE', *, *, #116, .T. ) ;
#100 = DIRECTION ( 'NONE',  ( 0.0000000000000000000, 0.0000000000000000000, 1.000000000000000000 ) ) ;
#101 = FILL_AREA_STYLE_COLOUR ( '', #78 ) ;
#102 = EDGE_CURVE ( 'NONE', #63, #164, #55, .T. ) ;
#103 = VECTOR ( 'NONE', #96, 1000.000000000000000 ) ;
#104 = DIRECTION ( 'NONE',  ( -1.000000000000000000, -0.0000000000000000000, -0.0000000000000000000 ) ) ;
#105 = DIRECTION ( 'NONE',  ( 0.0000000000000000000, 0.0000000000000000000, 1.000000000000000000 ) ) ;
#106 = AXIS2_PLACEMENT_3D ( 'NONE', #119, #111, #5 ) ;
#107 = ORIENTED_EDGE ( 'NONE', *, *, #87, .F. ) ;
#108 = DIRECTION ( 'NONE',  ( -0.0000000000000000000, 0.0000000000000000000, -1.000000000000000000 ) ) ;
#109 = VERTEX_POINT ( 'NONE', #79 ) ;
#110 = CARTESIAN_POINT ( 'NONE',  ( 488.4974858266564300, 143.6687824633147800, 3.149999999999958600 ) ) ;
#111 = DIRECTION ( 'NONE',  ( 0.0000000000000000000, 1.224646799147353200E-016, -1.000000000000000000 ) ) ;
#112 = APPLICATION_PROTOCOL_DEFINITION ( 'draft international standard', 'automotive_design', 1998, #6 ) ;
#113 = CLOSED_SHELL ( 'NONE', ( #138, #50, #118, #3, #49 ) ) ;
#114 = FILL_AREA_STYLE ('',( #36 ) ) ;
#115 = AXIS2_PLACEMENT_3D ( 'NONE', #93, #82, #142 ) ;
#116 = EDGE_CURVE ( 'NONE', #26, #63, #24, .T. ) ;
#117 = MECHANICAL_DESIGN_GEOMETRIC_PRESENTATION_REPRESENTATION (  '', ( #86 ), #9 ) ;
#118 = ADVANCED_FACE ( 'NONE', ( #169 ), #37, .T. ) ;
#119 = CARTESIAN_POINT ( 'NONE',  ( 484.3958035836657200, 143.6687824633147600, 0.0000000000000000000 ) ) ;
#120 = CYLINDRICAL_SURFACE ( 'NONE', #166, 3.149999999999958600 ) ;
#121 = SURFACE_SIDE_STYLE ('',( #1 ) ) ;
#122 = FACE_OUTER_BOUND ( 'NONE', #97, .T. ) ;
#123 = ORIENTED_EDGE ( 'NONE', *, *, #137, .T. ) ;
#124 = CARTESIAN_POINT ( 'NONE',  ( 486.4778278430625300, 143.6687824633147800, -3.149999999999958600 ) ) ;
#125 = SURFACE_STYLE_USAGE ( .BOTH. , #121 ) ;
#126 = DIRECTION ( 'NONE',  ( 0.0000000000000000000, 0.0000000000000000000, 1.000000000000000000 ) ) ;
#127 =( NAMED_UNIT ( * ) PLANE_ANGLE_UNIT ( ) SI_UNIT ( $, .RADIAN. ) );
#128 = DIRECTION ( 'NONE',  ( 0.0000000000000000000, 0.0000000000000000000, 1.000000000000000000 ) ) ;
#129 = DIRECTION ( 'NONE',  ( 0.0000000000000000000, 1.000000000000000000, 0.0000000000000000000 ) ) ;
#130 = CARTESIAN_POINT ( 'NONE',  ( 488.4974858266564300, 143.6687824633147800, 0.0000000000000000000 ) ) ;
#131 = PRODUCT_DEFINITION_FORMATION_WITH_SPECIFIED_SOURCE ( 'ÈÎºÎ', '', #54, .NOT_KNOWN. ) ;
#132 = ORIENTED_EDGE ( 'NONE', *, *, #180, .F. ) ;
#133 = EDGE_CURVE ( 'NONE', #65, #63, #176, .T. ) ;
#134 = STYLED_ITEM ( 'NONE', ( #181 ), #182 ) ;
#135 = EDGE_LOOP ( 'NONE', ( #107, #99, #48, #132 ) ) ;
#136 = CARTESIAN_POINT ( 'NONE',  ( 489.5674858266564200, 143.6687824633147600, 0.0000000000000000000 ) ) ;
#137 = EDGE_CURVE ( 'NONE', #164, #109, #141, .T. ) ;
#138 = ADVANCED_FACE ( 'NONE', ( #122 ), #179, .T. ) ;
#139 = DIRECTION ( 'NONE',  ( 0.0000000000000000000, 0.0000000000000000000, 1.000000000000000000 ) ) ;
#140 = DIRECTION ( 'NONE',  ( -1.000000000000000000, -0.0000000000000000000, -0.0000000000000000000 ) ) ;
#141 = LINE ( 'NONE', #124, #47 ) ;
#142 = DIRECTION ( 'NONE',  ( 1.000000000000000000, 0.0000000000000000000, 0.0000000000000000000 ) ) ;
#143 = CARTESIAN_POINT ( 'NONE',  ( 486.4778278430625300, 143.6687824633147800, 3.149999999999958600 ) ) ;
#144 = PRESENTATION_LAYER_ASSIGNMENT (  '', '', ( #134 ) ) ;
#145 = CARTESIAN_POINT ( 'NONE',  ( 488.4974858266564300, 143.6687824633147800, 0.0000000000000000000 ) ) ;
#146 = UNCERTAINTY_MEASURE_WITH_UNIT (LENGTH_MEASURE( 1.000000000000000100E-005 ), #59, 'distance_accuracy_value', 'NONE');
#147 = CARTESIAN_POINT ( 'NONE',  ( 0.0000000000000000000, 0.0000000000000000000, 0.0000000000000000000 ) ) ;
#148 = ORIENTED_EDGE ( 'NONE', *, *, #13, .F. ) ;
#149 = VERTEX_POINT ( 'NONE', #153 ) ;
#150 = ORIENTED_EDGE ( 'NONE', *, *, #116, .F. ) ;
#151 = ORIENTED_EDGE ( 'NONE', *, *, #137, .F. ) ;
#152 =( GEOMETRIC_REPRESENTATION_CONTEXT ( 3 ) GLOBAL_UNCERTAINTY_ASSIGNED_CONTEXT ( ( #175 ) ) GLOBAL_UNIT_ASSIGNED_CONTEXT ( ( #178, #84, #8 ) ) REPRESENTATION_CONTEXT ( 'NONE', 'WORKASPACE' ) );
#153 = CARTESIAN_POINT ( 'NONE',  ( 488.4974858266564300, 140.5187824633147800, -3.857637417314127700E-016 ) ) ;
#154 = ORIENTED_EDGE ( 'NONE', *, *, #102, .F. ) ;
#155 = DIRECTION ( 'NONE',  ( 1.000000000000000000, 0.0000000000000000000, 0.0000000000000000000 ) ) ;
#156 = DIRECTION ( 'NONE',  ( 1.000000000000000000, 0.0000000000000000000, 0.0000000000000000000 ) ) ;
#157 = DIRECTION ( 'NONE',  ( -1.000000000000000000, -0.0000000000000000000, -0.0000000000000000000 ) ) ;
#158 = PLANE ( 'NONE',  #10 ) ;
#159 = VERTEX_POINT ( 'NONE', #61 ) ;
#160 = AXIS2_PLACEMENT_3D ( 'NONE', #147, #173, #155 ) ;
#161 = CIRCLE ( 'NONE', #95, 3.149999999999958600 ) ;
#162 = AXIS2_PLACEMENT_3D ( 'NONE', #80, #94, #128 ) ;
#163 = SURFACE_STYLE_FILL_AREA ( #60 ) ;
#164 = VERTEX_POINT ( 'NONE', #177 ) ;
#165 = ORIENTED_EDGE ( 'NONE', *, *, #102, .T. ) ;
#166 = AXIS2_PLACEMENT_3D ( 'NONE', #27, #185, #100 ) ;
#167 = EDGE_CURVE ( 'NONE', #65, #159, #88, .T. ) ;
#168 = AXIS2_PLACEMENT_3D ( 'NONE', #171, #81, #129 ) ;
#169 = FACE_OUTER_BOUND ( 'NONE', #135, .T. ) ;
#170 = ORIENTED_EDGE ( 'NONE', *, *, #41, .F. ) ;
#171 = CARTESIAN_POINT ( 'NONE',  ( 484.3958035836657200, 143.6687824633147600, 0.0000000000000000000 ) ) ;
#172 =( NAMED_UNIT ( * ) SI_UNIT ( $, .STERADIAN. ) SOLID_ANGLE_UNIT ( ) );
#173 = DIRECTION ( 'NONE',  ( 0.0000000000000000000, 0.0000000000000000000, 1.000000000000000000 ) ) ;
#174 = CARTESIAN_POINT ( 'NONE',  ( 486.9674858266564000, 143.6687824633147600, 0.0000000000000000000 ) ) ;
#175 = UNCERTAINTY_MEASURE_WITH_UNIT (LENGTH_MEASURE( 1.000000000000000100E-005 ), #178, 'distance_accuracy_value', 'NONE');
#176 = CIRCLE ( 'NONE', #90, 3.149999999999958600 ) ;
#177 = CARTESIAN_POINT ( 'NONE',  ( 488.4974858266564300, 143.6687824633147800, -3.149999999999958600 ) ) ;
#178 =( LENGTH_UNIT ( ) NAMED_UNIT ( * ) SI_UNIT ( .MILLI., .METRE. ) );
#179 = CYLINDRICAL_SURFACE ( 'NONE', #25, 3.149999999999958600 ) ;
#180 = EDGE_CURVE ( 'NONE', #149, #65, #35, .T. ) ;
#181 = PRESENTATION_STYLE_ASSIGNMENT (( #125 ) ) ;
#182 = ADVANCED_BREP_SHAPE_REPRESENTATION ( '100007', ( #31, #160 ), #152 ) ;
#183 =( GEOMETRIC_REPRESENTATION_CONTEXT ( 3 ) GLOBAL_UNCERTAINTY_ASSIGNED_CONTEXT ( ( #146 ) ) GLOBAL_UNIT_ASSIGNED_CONTEXT ( ( #59, #127, #57 ) ) REPRESENTATION_CONTEXT ( 'NONE', 'WORKASPACE' ) );
#184 = FACE_OUTER_BOUND ( 'NONE', #22, .T. ) ;
#185 = DIRECTION ( 'NONE',  ( -1.000000000000000000, -0.0000000000000000000, -0.0000000000000000000 ) ) ;
#186 = ORIENTED_EDGE ( 'NONE', *, *, #41, .T. ) ;
ENDSEC;
END-ISO-10303-21;
