ISO-10303-21;
HEADER;
FILE_DESCRIPTION (( 'STEP AP214' ),
    '1' );
FILE_NAME ('100000.STEP',
    '2019-04-18T01:54:43',
    ( '' ),
    ( '' ),
    'SwSTEP 2.0',
    'SolidWorks 2016',
    '' );
FILE_SCHEMA (( 'AUTOMOTIVE_DESIGN' ));
ENDSEC;

DATA;
#1 = CONICAL_SURFACE ( 'NONE', #8, 1.497518163843275500, 0.002158115046652956200 ) ;
#2 = EDGE_LOOP ( 'NONE', ( #28, #141, #102, #34 ) ) ;
#3 = CIRCLE ( 'NONE', #151, 1.497518163843275500 ) ;
#4 = EDGE_CURVE ( 'NONE', #129, #103, #3, .T. ) ;
#5 = CLOSED_SHELL ( 'NONE', ( #6, #30, #150, #33, #132 ) ) ;
#6 = ADVANCED_FACE ( 'NONE', ( #15 ), #83, .T. ) ;
#7 = ORIENTED_EDGE ( 'NONE', *, *, #27, .T. ) ;
#8 = AXIS2_PLACEMENT_3D ( 'NONE', #18, #130, #85 ) ;
#9 = DIRECTION ( 'NONE',  ( 0.0000000000000000000, 0.0000000000000000000, 1.000000000000000000 ) ) ;
#10 =( LENGTH_UNIT ( ) NAMED_UNIT ( * ) SI_UNIT ( .MILLI., .METRE. ) );
#11 = APPLICATION_CONTEXT ( 'automotive_design' ) ;
#12 = ORIENTED_EDGE ( 'NONE', *, *, #143, .T. ) ;
#13 =( NAMED_UNIT ( * ) PLANE_ANGLE_UNIT ( ) SI_UNIT ( $, .RADIAN. ) );
#14 = SPHERICAL_SURFACE ( 'NONE', #101, 2.320454545454588400 ) ;
#15 = FACE_OUTER_BOUND ( 'NONE', #2, .T. ) ;
#16 = AXIS2_PLACEMENT_3D ( 'NONE', #124, #121, #156 ) ;
#17 = SHAPE_DEFINITION_REPRESENTATION ( #157, #88 ) ;
#18 = CARTESIAN_POINT ( 'NONE',  ( 516.4210317904571600, 157.0828345131775400, 0.0000000000000000000 ) ) ;
#19 = PRESENTATION_STYLE_ASSIGNMENT (( #72 ) ) ;
#20 = DIRECTION ( 'NONE',  ( 0.0000000000000000000, 1.000000000000000000, 0.0000000000000000000 ) ) ;
#21 = CARTESIAN_POINT ( 'NONE',  ( 515.8005772450026100, 157.0828345131776000, 0.0000000000000000000 ) ) ;
#22 = ORIENTED_EDGE ( 'NONE', *, *, #116, .F. ) ;
#23 = AXIS2_PLACEMENT_3D ( 'NONE', #49, #24, #165 ) ;
#24 = DIRECTION ( 'NONE',  ( 1.000000000000000000, 1.632680918566373300E-014, -0.0000000000000000000 ) ) ;
#25 = DIRECTION ( 'NONE',  ( 0.0000000000000000000, -0.0000000000000000000, -1.000000000000000000 ) ) ;
#26 =( NAMED_UNIT ( * ) SI_UNIT ( $, .STERADIAN. ) SOLID_ANGLE_UNIT ( ) );
#27 = EDGE_CURVE ( 'NONE', #129, #138, #149, .T. ) ;
#28 = ORIENTED_EDGE ( 'NONE', *, *, #4, .T. ) ;
#29 = AXIS2_PLACEMENT_3D ( 'NONE', #77, #40, #50 ) ;
#30 = ADVANCED_FACE ( 'NONE', ( #118 ), #109, .T. ) ;
#31 = ORIENTED_EDGE ( 'NONE', *, *, #159, .F. ) ;
#32 = UNCERTAINTY_MEASURE_WITH_UNIT (LENGTH_MEASURE( 1.000000000000000100E-005 ), #10, 'distance_accuracy_value', 'NONE');
#33 = ADVANCED_FACE ( 'NONE', ( #66 ), #1, .T. ) ;
#34 = ORIENTED_EDGE ( 'NONE', *, *, #27, .F. ) ;
#35 = AXIS2_PLACEMENT_3D ( 'NONE', #108, #87, #20 ) ;
#36 = DIRECTION ( 'NONE',  ( 1.999457460951269300E-030, -1.224646799147353200E-016, -1.000000000000000000 ) ) ;
#37 = PLANE ( 'NONE',  #29 ) ;
#38 = FILL_AREA_STYLE ('',( #61 ) ) ;
#39 = EDGE_LOOP ( 'NONE', ( #144, #31 ) ) ;
#40 = DIRECTION ( 'NONE',  ( -1.000000000000000000, -1.632680918566373300E-014, 0.0000000000000000000 ) ) ;
#41 = PRESENTATION_LAYER_ASSIGNMENT (  '', '', ( #131 ) ) ;
#42 = AXIS2_PLACEMENT_3D ( 'NONE', #146, #71, #69 ) ;
#43 = VERTEX_POINT ( 'NONE', #97 ) ;
#44 = CIRCLE ( 'NONE', #16, 2.320454545454597700 ) ;
#45 = CIRCLE ( 'NONE', #23, 1.499999999999945800 ) ;
#46 = CARTESIAN_POINT ( 'NONE',  ( 516.4210317904571600, 157.0828345131775400, 0.0000000000000000000 ) ) ;
#47 = DIRECTION ( 'NONE',  ( 0.9999976712706264400, 0.002158113371447055500, 0.0000000000000000000 ) ) ;
#48 = EDGE_LOOP ( 'NONE', ( #22, #76, #7, #100 ) ) ;
#49 = CARTESIAN_POINT ( 'NONE',  ( 517.5710317904572500, 157.0828345131775700, 0.0000000000000000000 ) ) ;
#50 = DIRECTION ( 'NONE',  ( 1.632680918566373300E-014, -1.000000000000000000, 0.0000000000000000000 ) ) ;
#51 = SURFACE_SIDE_STYLE ('',( #93 ) ) ;
#52 = AXIS2_PLACEMENT_3D ( 'NONE', #53, #92, #60 ) ;
#53 = CARTESIAN_POINT ( 'NONE',  ( 517.5710317904572500, 157.0828345131775700, 0.0000000000000000000 ) ) ;
#54 = CIRCLE ( 'NONE', #94, 2.320454545454597700 ) ;
#55 = EDGE_LOOP ( 'NONE', ( #158, #68, #82 ) ) ;
#56 = AXIS2_PLACEMENT_3D ( 'NONE', #111, #125, #99 ) ;
#57 = CARTESIAN_POINT ( 'NONE',  ( 516.4210317904571600, 155.5853163493342500, 1.833930826015688900E-016 ) ) ;
#58 =( GEOMETRIC_REPRESENTATION_CONTEXT ( 3 ) GLOBAL_UNCERTAINTY_ASSIGNED_CONTEXT ( ( #32 ) ) GLOBAL_UNIT_ASSIGNED_CONTEXT ( ( #10, #154, #110 ) ) REPRESENTATION_CONTEXT ( 'NONE', 'WORKASPACE' ) );
#59 = CARTESIAN_POINT ( 'NONE',  ( 516.4210317904571600, 155.5853163493342500, 1.835450512368326300E-016 ) ) ;
#60 = DIRECTION ( 'NONE',  ( 0.0000000000000000000, 1.000000000000000000, 0.0000000000000000000 ) ) ;
#61 = FILL_AREA_STYLE_COLOUR ( '', #133 ) ;
#62 = DIRECTION ( 'NONE',  ( 1.000000000000000000, 0.0000000000000000000, 0.0000000000000000000 ) ) ;
#63 =( LENGTH_UNIT ( ) NAMED_UNIT ( * ) SI_UNIT ( .MILLI., .METRE. ) );
#64 = PRESENTATION_LAYER_ASSIGNMENT (  '', '', ( #84 ) ) ;
#65 = EDGE_LOOP ( 'NONE', ( #12, #127, #136 ) ) ;
#66 = FACE_OUTER_BOUND ( 'NONE', #48, .T. ) ;
#67 = DIRECTION ( 'NONE',  ( 1.000000000000000000, 1.632680918566373300E-014, -0.0000000000000000000 ) ) ;
#68 = ORIENTED_EDGE ( 'NONE', *, *, #139, .T. ) ;
#69 = DIRECTION ( 'NONE',  ( 0.0000000000000000000, -1.000000000000000000, 0.0000000000000000000 ) ) ;
#70 = DIRECTION ( 'NONE',  ( 0.9999976712706265500, -0.002158113371414402400, 2.642926632519745400E-019 ) ) ;
#71 = DIRECTION ( 'NONE',  ( 0.0000000000000000000, -0.0000000000000000000, -1.000000000000000000 ) ) ;
#72 = SURFACE_STYLE_USAGE ( .BOTH. , #51 ) ;
#73 = FILL_AREA_STYLE_COLOUR ( '', #104 ) ;
#74 = CARTESIAN_POINT ( 'NONE',  ( 517.5710317904572500, 158.5828345131775400, -1.836970198720930100E-016 ) ) ;
#75 = MECHANICAL_DESIGN_GEOMETRIC_PRESENTATION_REPRESENTATION (  '', ( #84 ), #107 ) ;
#76 = ORIENTED_EDGE ( 'NONE', *, *, #159, .T. ) ;
#77 = CARTESIAN_POINT ( 'NONE',  ( 516.4210317904597800, 4.207233111074681800E-026, 0.0000000000000000000 ) ) ;
#78 =( NAMED_UNIT ( * ) SI_UNIT ( $, .STERADIAN. ) SOLID_ANGLE_UNIT ( ) );
#79 = APPLICATION_CONTEXT ( 'automotive_design' ) ;
#80 = LINE ( 'NONE', #57, #91 ) ;
#81 = PRODUCT_RELATED_PRODUCT_CATEGORY ( 'part', '', ( #119 ) ) ;
#82 = ORIENTED_EDGE ( 'NONE', *, *, #128, .T. ) ;
#83 = CONICAL_SURFACE ( 'NONE', #35, 1.497518163843275500, 0.002158115046652956200 ) ;
#84 = STYLED_ITEM ( 'NONE', ( #95 ), #166 ) ;
#85 = DIRECTION ( 'NONE',  ( 0.0000000000000000000, 1.000000000000000000, 0.0000000000000000000 ) ) ;
#86 = MECHANICAL_DESIGN_GEOMETRIC_PRESENTATION_REPRESENTATION (  '', ( #131 ), #58 ) ;
#87 = DIRECTION ( 'NONE',  ( 1.000000000000000000, 1.632680918566373300E-014, -0.0000000000000000000 ) ) ;
#88 = ADVANCED_BREP_SHAPE_REPRESENTATION ( '100000', ( #166, #140 ), #117 ) ;
#89 = CARTESIAN_POINT ( 'NONE',  ( 0.0000000000000000000, 0.0000000000000000000, 0.0000000000000000000 ) ) ;
#90 =( LENGTH_UNIT ( ) NAMED_UNIT ( * ) SI_UNIT ( .MILLI., .METRE. ) );
#91 = VECTOR ( 'NONE', #70, 1000.000000000000000 ) ;
#92 = DIRECTION ( 'NONE',  ( 1.000000000000000000, 1.632680918566373300E-014, -0.0000000000000000000 ) ) ;
#93 = SURFACE_STYLE_FILL_AREA ( #155 ) ;
#94 = AXIS2_PLACEMENT_3D ( 'NONE', #21, #36, #137 ) ;
#95 = PRESENTATION_STYLE_ASSIGNMENT (( #152 ) ) ;
#96 = PRODUCT_DEFINITION_FORMATION_WITH_SPECIFIED_SOURCE ( 'ÈÎºÎ', '', #119, .NOT_KNOWN. ) ;
#97 = CARTESIAN_POINT ( 'NONE',  ( 517.5710317904572500, 155.5828345131776600, 0.0000000000000000000 ) ) ;
#98 = CIRCLE ( 'NONE', #56, 1.497518163843275500 ) ;
#99 = DIRECTION ( 'NONE',  ( 0.0000000000000000000, 1.000000000000000000, 0.0000000000000000000 ) ) ;
#100 = ORIENTED_EDGE ( 'NONE', *, *, #143, .F. ) ;
#101 = AXIS2_PLACEMENT_3D ( 'NONE', #164, #25, #135 ) ;
#102 = ORIENTED_EDGE ( 'NONE', *, *, #139, .F. ) ;
#103 = VERTEX_POINT ( 'NONE', #59 ) ;
#104 = COLOUR_RGB ( '',1.000000000000000000, 1.000000000000000000, 1.000000000000000000 ) ;
#105 = CIRCLE ( 'NONE', #52, 1.499999999999945800 ) ;
#106 = VERTEX_POINT ( 'NONE', #147 ) ;
#107 =( GEOMETRIC_REPRESENTATION_CONTEXT ( 3 ) GLOBAL_UNCERTAINTY_ASSIGNED_CONTEXT ( ( #160 ) ) GLOBAL_UNIT_ASSIGNED_CONTEXT ( ( #63, #113, #78 ) ) REPRESENTATION_CONTEXT ( 'NONE', 'WORKASPACE' ) );
#108 = CARTESIAN_POINT ( 'NONE',  ( 516.4210317904571600, 157.0828345131775400, 0.0000000000000000000 ) ) ;
#109 = SPHERICAL_SURFACE ( 'NONE', #42, 2.320454545454588400 ) ;
#110 =( NAMED_UNIT ( * ) SI_UNIT ( $, .STERADIAN. ) SOLID_ANGLE_UNIT ( ) );
#111 = CARTESIAN_POINT ( 'NONE',  ( 516.4210317904571600, 157.0828345131775400, 0.0000000000000000000 ) ) ;
#112 = PRODUCT_DEFINITION_CONTEXT ( 'detailed design', #79, 'design' ) ;
#113 =( NAMED_UNIT ( * ) PLANE_ANGLE_UNIT ( ) SI_UNIT ( $, .RADIAN. ) );
#114 = APPLICATION_PROTOCOL_DEFINITION ( 'draft international standard', 'automotive_design', 1998, #11 ) ;
#115 = VECTOR ( 'NONE', #47, 1000.000000000000100 ) ;
#116 = EDGE_CURVE ( 'NONE', #103, #43, #80, .T. ) ;
#117 =( GEOMETRIC_REPRESENTATION_CONTEXT ( 3 ) GLOBAL_UNCERTAINTY_ASSIGNED_CONTEXT ( ( #162 ) ) GLOBAL_UNIT_ASSIGNED_CONTEXT ( ( #90, #13, #26 ) ) REPRESENTATION_CONTEXT ( 'NONE', 'WORKASPACE' ) );
#118 = FACE_OUTER_BOUND ( 'NONE', #65, .T. ) ;
#119 = PRODUCT ( '100000', '100000', '', ( #134 ) ) ;
#120 = EDGE_CURVE ( 'NONE', #138, #106, #54, .T. ) ;
#121 = DIRECTION ( 'NONE',  ( 0.0000000000000000000, 0.0000000000000000000, 1.000000000000000000 ) ) ;
#122 = CARTESIAN_POINT ( 'NONE',  ( 516.4210317904571600, 158.5803526770208100, 0.0000000000000000000 ) ) ;
#123 = SURFACE_SIDE_STYLE ('',( #163 ) ) ;
#124 = CARTESIAN_POINT ( 'NONE',  ( 515.8005772450026100, 157.0828345131776000, 0.0000000000000000000 ) ) ;
#125 = DIRECTION ( 'NONE',  ( 1.000000000000000000, 1.632680918566373300E-014, -0.0000000000000000000 ) ) ;
#126 = APPLICATION_PROTOCOL_DEFINITION ( 'draft international standard', 'automotive_design', 1998, #79 ) ;
#127 = ORIENTED_EDGE ( 'NONE', *, *, #120, .T. ) ;
#128 = EDGE_CURVE ( 'NONE', #43, #106, #44, .T. ) ;
#129 = VERTEX_POINT ( 'NONE', #122 ) ;
#130 = DIRECTION ( 'NONE',  ( 1.000000000000000000, 1.632680918566373300E-014, -0.0000000000000000000 ) ) ;
#131 = STYLED_ITEM ( 'NONE', ( #19 ), #88 ) ;
#132 = ADVANCED_FACE ( 'NONE', ( #153 ), #37, .T. ) ;
#133 = COLOUR_RGB ( '',1.000000000000000000, 1.000000000000000000, 1.000000000000000000 ) ;
#134 = PRODUCT_CONTEXT ( 'NONE', #11, 'mechanical' ) ;
#135 = DIRECTION ( 'NONE',  ( 0.0000000000000000000, -1.000000000000000000, 0.0000000000000000000 ) ) ;
#136 = ORIENTED_EDGE ( 'NONE', *, *, #128, .F. ) ;
#137 = DIRECTION ( 'NONE',  ( 0.0000000000000000000, 1.000000000000000000, -1.224646799147348300E-016 ) ) ;
#138 = VERTEX_POINT ( 'NONE', #74 ) ;
#139 = EDGE_CURVE ( 'NONE', #138, #43, #45, .T. ) ;
#140 = AXIS2_PLACEMENT_3D ( 'NONE', #89, #9, #62 ) ;
#141 = ORIENTED_EDGE ( 'NONE', *, *, #116, .T. ) ;
#142 = FACE_OUTER_BOUND ( 'NONE', #55, .T. ) ;
#143 = EDGE_CURVE ( 'NONE', #43, #138, #105, .T. ) ;
#144 = ORIENTED_EDGE ( 'NONE', *, *, #4, .F. ) ;
#145 = CARTESIAN_POINT ( 'NONE',  ( 516.4210317904571600, 158.5803526770208100, 0.0000000000000000000 ) ) ;
#146 = CARTESIAN_POINT ( 'NONE',  ( 515.8005772450026100, 157.0828345131776000, 0.0000000000000000000 ) ) ;
#147 = CARTESIAN_POINT ( 'NONE',  ( 518.1210317904572100, 157.0828345131776000, 0.0000000000000000000 ) ) ;
#148 = DIRECTION ( 'NONE',  ( 0.0000000000000000000, 1.000000000000000000, 0.0000000000000000000 ) ) ;
#149 = LINE ( 'NONE', #145, #115 ) ;
#150 = ADVANCED_FACE ( 'NONE', ( #142 ), #14, .T. ) ;
#151 = AXIS2_PLACEMENT_3D ( 'NONE', #46, #67, #148 ) ;
#152 = SURFACE_STYLE_USAGE ( .BOTH. , #123 ) ;
#153 = FACE_OUTER_BOUND ( 'NONE', #39, .T. ) ;
#154 =( NAMED_UNIT ( * ) PLANE_ANGLE_UNIT ( ) SI_UNIT ( $, .RADIAN. ) );
#155 = FILL_AREA_STYLE ('',( #73 ) ) ;
#156 = DIRECTION ( 'NONE',  ( 1.000000000000000000, 0.0000000000000000000, 0.0000000000000000000 ) ) ;
#157 = PRODUCT_DEFINITION_SHAPE ( 'NONE', 'NONE',  #161 ) ;
#158 = ORIENTED_EDGE ( 'NONE', *, *, #120, .F. ) ;
#159 = EDGE_CURVE ( 'NONE', #103, #129, #98, .T. ) ;
#160 = UNCERTAINTY_MEASURE_WITH_UNIT (LENGTH_MEASURE( 1.000000000000000100E-005 ), #63, 'distance_accuracy_value', 'NONE');
#161 = PRODUCT_DEFINITION ( 'Î´Öª', '', #96, #112 ) ;
#162 = UNCERTAINTY_MEASURE_WITH_UNIT (LENGTH_MEASURE( 1.000000000000000100E-005 ), #90, 'distance_accuracy_value', 'NONE');
#163 = SURFACE_STYLE_FILL_AREA ( #38 ) ;
#164 = CARTESIAN_POINT ( 'NONE',  ( 515.8005772450026100, 157.0828345131776000, 0.0000000000000000000 ) ) ;
#165 = DIRECTION ( 'NONE',  ( 0.0000000000000000000, 1.000000000000000000, 0.0000000000000000000 ) ) ;
#166 = MANIFOLD_SOLID_BREP ( 'Ðý×ª3', #5 ) ;
ENDSEC;
END-ISO-10303-21;
