ISO-10303-21;
HEADER;
FILE_DESCRIPTION (( 'STEP AP214' ),
    '1' );
FILE_NAME ('248593.STEP',
    '2019-08-06T03:44:37',
    ( 'user' ),
    ( 'Î¢ÈíÖÐ¹ú' ),
    'SwSTEP 2.0',
    'SolidWorks 2016',
    '' );
FILE_SCHEMA (( 'AUTOMOTIVE_DESIGN' ));
ENDSEC;

DATA;
#1 = FILL_AREA_STYLE ('',( #64 ) ) ;
#2 = MECHANICAL_DESIGN_GEOMETRIC_PRESENTATION_REPRESENTATION (  '', ( #11 ), #113 ) ;
#3 = ORIENTED_EDGE ( 'NONE', *, *, #24, .T. ) ;
#4 = MANIFOLD_SOLID_BREP ( 'Í¹Ì¨-À­Éì1', #34 ) ;
#5 = DIRECTION ( 'NONE',  ( -0.0000000000000000000, -1.000000000000000000, -0.0000000000000000000 ) ) ;
#6 = ORIENTED_EDGE ( 'NONE', *, *, #51, .T. ) ;
#7 = PRESENTATION_STYLE_ASSIGNMENT (( #105 ) ) ;
#8 = UNCERTAINTY_MEASURE_WITH_UNIT (LENGTH_MEASURE( 1.000000000000000100E-005 ), #12, 'distance_accuracy_value', 'NONE');
#9 = DIRECTION ( 'NONE',  ( 0.0000000000000000000, 0.0000000000000000000, 1.000000000000000000 ) ) ;
#10 = DIRECTION ( 'NONE',  ( 0.0000000000000000000, 0.0000000000000000000, 1.000000000000000000 ) ) ;
#11 = STYLED_ITEM ( 'NONE', ( #36 ), #56 ) ;
#12 =( LENGTH_UNIT ( ) NAMED_UNIT ( * ) SI_UNIT ( .MILLI., .METRE. ) );
#13 = CARTESIAN_POINT ( 'NONE',  ( 0.0000000000000000000, 0.0000000000000000000, 0.0000000000000000000 ) ) ;
#14 = ORIENTED_EDGE ( 'NONE', *, *, #17, .F. ) ;
#15 = CARTESIAN_POINT ( 'NONE',  ( 1.530808498934191500E-015, 1.250000000000000000, 12.50000000000000000 ) ) ;
#16 = VERTEX_POINT ( 'NONE', #96 ) ;
#17 = EDGE_CURVE ( 'NONE', #38, #120, #138, .T. ) ;
#18 = AXIS2_PLACEMENT_3D ( 'NONE', #130, #131, #10 ) ;
#19 = DIRECTION ( 'NONE',  ( -0.0000000000000000000, -1.000000000000000000, -0.0000000000000000000 ) ) ;
#20 = ADVANCED_FACE ( 'NONE', ( #54 ), #23, .T. ) ;
#21 = CIRCLE ( 'NONE', #89, 12.50000000000000000 ) ;
#22 = DIRECTION ( 'NONE',  ( 0.0000000000000000000, 1.000000000000000000, 0.0000000000000000000 ) ) ;
#23 = CYLINDRICAL_SURFACE ( 'NONE', #48, 12.50000000000000000 ) ;
#24 = EDGE_CURVE ( 'NONE', #16, #120, #50, .T. ) ;
#25 = DIRECTION ( 'NONE',  ( 0.0000000000000000000, 0.0000000000000000000, 1.000000000000000000 ) ) ;
#26 = CARTESIAN_POINT ( 'NONE',  ( 0.0000000000000000000, 1.250000000000000000, -12.50000000000000000 ) ) ;
#27 = ORIENTED_EDGE ( 'NONE', *, *, #57, .T. ) ;
#28 = PRODUCT_CONTEXT ( 'NONE', #44, 'mechanical' ) ;
#29 = PRESENTATION_LAYER_ASSIGNMENT (  '', '', ( #122 ) ) ;
#30 = DIRECTION ( 'NONE',  ( 0.0000000000000000000, -0.0000000000000000000, 1.000000000000000000 ) ) ;
#31 = DIRECTION ( 'NONE',  ( 0.0000000000000000000, 1.000000000000000000, 0.0000000000000000000 ) ) ;
#32 = DIRECTION ( 'NONE',  ( 0.0000000000000000000, -0.0000000000000000000, 1.000000000000000000 ) ) ;
#33 = ADVANCED_FACE ( 'NONE', ( #82 ), #61, .T. ) ;
#34 = CLOSED_SHELL ( 'NONE', ( #108, #20, #33, #41 ) ) ;
#35 = EDGE_LOOP ( 'NONE', ( #27, #6 ) ) ;
#36 = PRESENTATION_STYLE_ASSIGNMENT (( #99 ) ) ;
#37 = DIRECTION ( 'NONE',  ( 0.0000000000000000000, 0.0000000000000000000, -1.000000000000000000 ) ) ;
#38 = VERTEX_POINT ( 'NONE', #15 ) ;
#39 = CARTESIAN_POINT ( 'NONE',  ( 0.0000000000000000000, 1.250000000000000000, 0.0000000000000000000 ) ) ;
#40 = CARTESIAN_POINT ( 'NONE',  ( 0.0000000000000000000, 1.250000000000000000, 0.0000000000000000000 ) ) ;
#41 = ADVANCED_FACE ( 'NONE', ( #79 ), #83, .F. ) ;
#42 = EDGE_LOOP ( 'NONE', ( #119, #124, #140, #62 ) ) ;
#43 =( NAMED_UNIT ( * ) SI_UNIT ( $, .STERADIAN. ) SOLID_ANGLE_UNIT ( ) );
#44 = APPLICATION_CONTEXT ( 'automotive_design' ) ;
#45 = VECTOR ( 'NONE', #5, 1000.000000000000000 ) ;
#46 = UNCERTAINTY_MEASURE_WITH_UNIT (LENGTH_MEASURE( 1.000000000000000100E-005 ), #118, 'distance_accuracy_value', 'NONE');
#47 = FACE_OUTER_BOUND ( 'NONE', #42, .T. ) ;
#48 = AXIS2_PLACEMENT_3D ( 'NONE', #100, #19, #73 ) ;
#49 = DIRECTION ( 'NONE',  ( 1.000000000000000000, 0.0000000000000000000, 0.0000000000000000000 ) ) ;
#50 = CIRCLE ( 'NONE', #71, 12.50000000000000000 ) ;
#51 = EDGE_CURVE ( 'NONE', #38, #68, #135, .T. ) ;
#52 =( LENGTH_UNIT ( ) NAMED_UNIT ( * ) SI_UNIT ( .MILLI., .METRE. ) );
#53 =( NAMED_UNIT ( * ) SI_UNIT ( $, .STERADIAN. ) SOLID_ANGLE_UNIT ( ) );
#54 = FACE_OUTER_BOUND ( 'NONE', #93, .T. ) ;
#55 = AXIS2_PLACEMENT_3D ( 'NONE', #39, #128, #92 ) ;
#56 = ADVANCED_BREP_SHAPE_REPRESENTATION ( '248593', ( #4, #91 ), #80 ) ;
#57 = EDGE_CURVE ( 'NONE', #68, #38, #102, .T. ) ;
#58 = SHAPE_DEFINITION_REPRESENTATION ( #114, #56 ) ;
#59 = PRODUCT ( '248593', '248593', '', ( #28 ) ) ;
#60 = SURFACE_STYLE_FILL_AREA ( #139 ) ;
#61 = PLANE ( 'NONE',  #111 ) ;
#62 = ORIENTED_EDGE ( 'NONE', *, *, #134, .F. ) ;
#63 = DIRECTION ( 'NONE',  ( -0.0000000000000000000, -1.000000000000000000, -0.0000000000000000000 ) ) ;
#64 = FILL_AREA_STYLE_COLOUR ( '', #95 ) ;
#65 = MECHANICAL_DESIGN_GEOMETRIC_PRESENTATION_REPRESENTATION (  '', ( #122 ), #90 ) ;
#66 = SURFACE_SIDE_STYLE ('',( #60 ) ) ;
#67 = DIRECTION ( 'NONE',  ( 0.0000000000000000000, 1.000000000000000000, 0.0000000000000000000 ) ) ;
#68 = VERTEX_POINT ( 'NONE', #121 ) ;
#69 = SURFACE_STYLE_FILL_AREA ( #1 ) ;
#70 = UNCERTAINTY_MEASURE_WITH_UNIT (LENGTH_MEASURE( 1.000000000000000100E-005 ), #52, 'distance_accuracy_value', 'NONE');
#71 = AXIS2_PLACEMENT_3D ( 'NONE', #98, #137, #132 ) ;
#72 = PRODUCT_RELATED_PRODUCT_CATEGORY ( 'part', '', ( #59 ) ) ;
#73 = DIRECTION ( 'NONE',  ( 0.0000000000000000000, 0.0000000000000000000, -1.000000000000000000 ) ) ;
#74 = SURFACE_SIDE_STYLE ('',( #69 ) ) ;
#75 = APPLICATION_CONTEXT ( 'automotive_design' ) ;
#76 = CARTESIAN_POINT ( 'NONE',  ( 1.530808498934191500E-015, 0.0000000000000000000, 12.50000000000000000 ) ) ;
#77 = FILL_AREA_STYLE_COLOUR ( '', #117 ) ;
#78 = APPLICATION_PROTOCOL_DEFINITION ( 'draft international standard', 'automotive_design', 1998, #44 ) ;
#79 = FACE_OUTER_BOUND ( 'NONE', #127, .T. ) ;
#80 =( GEOMETRIC_REPRESENTATION_CONTEXT ( 3 ) GLOBAL_UNCERTAINTY_ASSIGNED_CONTEXT ( ( #46 ) ) GLOBAL_UNIT_ASSIGNED_CONTEXT ( ( #118, #103, #43 ) ) REPRESENTATION_CONTEXT ( 'NONE', 'WORKASPACE' ) );
#81 = PRODUCT_DEFINITION ( 'Î´Öª', '', #104, #126 ) ;
#82 = FACE_OUTER_BOUND ( 'NONE', #35, .T. ) ;
#83 = PLANE ( 'NONE',  #97 ) ;
#84 = APPLICATION_PROTOCOL_DEFINITION ( 'draft international standard', 'automotive_design', 1998, #75 ) ;
#85 =( NAMED_UNIT ( * ) PLANE_ANGLE_UNIT ( ) SI_UNIT ( $, .RADIAN. ) );
#86 = ORIENTED_EDGE ( 'NONE', *, *, #109, .F. ) ;
#87 = LINE ( 'NONE', #26, #45 ) ;
#88 = CARTESIAN_POINT ( 'NONE',  ( 0.0000000000000000000, 0.0000000000000000000, 0.0000000000000000000 ) ) ;
#89 = AXIS2_PLACEMENT_3D ( 'NONE', #88, #22, #25 ) ;
#90 =( GEOMETRIC_REPRESENTATION_CONTEXT ( 3 ) GLOBAL_UNCERTAINTY_ASSIGNED_CONTEXT ( ( #8 ) ) GLOBAL_UNIT_ASSIGNED_CONTEXT ( ( #12, #106, #53 ) ) REPRESENTATION_CONTEXT ( 'NONE', 'WORKASPACE' ) );
#91 = AXIS2_PLACEMENT_3D ( 'NONE', #13, #9, #49 ) ;
#92 = DIRECTION ( 'NONE',  ( 0.0000000000000000000, 0.0000000000000000000, 1.000000000000000000 ) ) ;
#93 = EDGE_LOOP ( 'NONE', ( #14, #94, #125, #3 ) ) ;
#94 = ORIENTED_EDGE ( 'NONE', *, *, #57, .F. ) ;
#95 = COLOUR_RGB ( '',1.000000000000000000, 1.000000000000000000, 1.000000000000000000 ) ;
#96 = CARTESIAN_POINT ( 'NONE',  ( 0.0000000000000000000, 0.0000000000000000000, -12.50000000000000000 ) ) ;
#97 = AXIS2_PLACEMENT_3D ( 'NONE', #116, #67, #30 ) ;
#98 = CARTESIAN_POINT ( 'NONE',  ( 0.0000000000000000000, 0.0000000000000000000, 0.0000000000000000000 ) ) ;
#99 = SURFACE_STYLE_USAGE ( .BOTH. , #66 ) ;
#100 = CARTESIAN_POINT ( 'NONE',  ( 0.0000000000000000000, 1.250000000000000000, 0.0000000000000000000 ) ) ;
#101 = CARTESIAN_POINT ( 'NONE',  ( 1.530808498934191500E-015, 1.250000000000000000, 12.50000000000000000 ) ) ;
#102 = CIRCLE ( 'NONE', #18, 12.50000000000000000 ) ;
#103 =( NAMED_UNIT ( * ) PLANE_ANGLE_UNIT ( ) SI_UNIT ( $, .RADIAN. ) );
#104 = PRODUCT_DEFINITION_FORMATION_WITH_SPECIFIED_SOURCE ( 'ÈÎºÎ', '', #59, .NOT_KNOWN. ) ;
#105 = SURFACE_STYLE_USAGE ( .BOTH. , #74 ) ;
#106 =( NAMED_UNIT ( * ) PLANE_ANGLE_UNIT ( ) SI_UNIT ( $, .RADIAN. ) );
#107 = VECTOR ( 'NONE', #133, 1000.000000000000000 ) ;
#108 = ADVANCED_FACE ( 'NONE', ( #47 ), #123, .T. ) ;
#109 = EDGE_CURVE ( 'NONE', #120, #16, #21, .T. ) ;
#110 = PRESENTATION_LAYER_ASSIGNMENT (  '', '', ( #11 ) ) ;
#111 = AXIS2_PLACEMENT_3D ( 'NONE', #136, #31, #32 ) ;
#112 =( NAMED_UNIT ( * ) SI_UNIT ( $, .STERADIAN. ) SOLID_ANGLE_UNIT ( ) );
#113 =( GEOMETRIC_REPRESENTATION_CONTEXT ( 3 ) GLOBAL_UNCERTAINTY_ASSIGNED_CONTEXT ( ( #70 ) ) GLOBAL_UNIT_ASSIGNED_CONTEXT ( ( #52, #85, #112 ) ) REPRESENTATION_CONTEXT ( 'NONE', 'WORKASPACE' ) );
#114 = PRODUCT_DEFINITION_SHAPE ( 'NONE', 'NONE',  #81 ) ;
#115 = ORIENTED_EDGE ( 'NONE', *, *, #24, .F. ) ;
#116 = CARTESIAN_POINT ( 'NONE',  ( 0.0000000000000000000, 0.0000000000000000000, 0.0000000000000000000 ) ) ;
#117 = COLOUR_RGB ( '',1.000000000000000000, 1.000000000000000000, 1.000000000000000000 ) ;
#118 =( LENGTH_UNIT ( ) NAMED_UNIT ( * ) SI_UNIT ( .MILLI., .METRE. ) );
#119 = ORIENTED_EDGE ( 'NONE', *, *, #51, .F. ) ;
#120 = VERTEX_POINT ( 'NONE', #76 ) ;
#121 = CARTESIAN_POINT ( 'NONE',  ( 0.0000000000000000000, 1.250000000000000000, -12.50000000000000000 ) ) ;
#122 = STYLED_ITEM ( 'NONE', ( #7 ), #4 ) ;
#123 = CYLINDRICAL_SURFACE ( 'NONE', #129, 12.50000000000000000 ) ;
#124 = ORIENTED_EDGE ( 'NONE', *, *, #17, .T. ) ;
#125 = ORIENTED_EDGE ( 'NONE', *, *, #134, .T. ) ;
#126 = PRODUCT_DEFINITION_CONTEXT ( 'detailed design', #75, 'design' ) ;
#127 = EDGE_LOOP ( 'NONE', ( #115, #86 ) ) ;
#128 = DIRECTION ( 'NONE',  ( 0.0000000000000000000, 1.000000000000000000, 0.0000000000000000000 ) ) ;
#129 = AXIS2_PLACEMENT_3D ( 'NONE', #40, #63, #37 ) ;
#130 = CARTESIAN_POINT ( 'NONE',  ( 0.0000000000000000000, 1.250000000000000000, 0.0000000000000000000 ) ) ;
#131 = DIRECTION ( 'NONE',  ( 0.0000000000000000000, 1.000000000000000000, 0.0000000000000000000 ) ) ;
#132 = DIRECTION ( 'NONE',  ( 0.0000000000000000000, 0.0000000000000000000, 1.000000000000000000 ) ) ;
#133 = DIRECTION ( 'NONE',  ( -0.0000000000000000000, -1.000000000000000000, -0.0000000000000000000 ) ) ;
#134 = EDGE_CURVE ( 'NONE', #68, #16, #87, .T. ) ;
#135 = CIRCLE ( 'NONE', #55, 12.50000000000000000 ) ;
#136 = CARTESIAN_POINT ( 'NONE',  ( 0.0000000000000000000, 1.250000000000000000, 0.0000000000000000000 ) ) ;
#137 = DIRECTION ( 'NONE',  ( 0.0000000000000000000, 1.000000000000000000, 0.0000000000000000000 ) ) ;
#138 = LINE ( 'NONE', #101, #107 ) ;
#139 = FILL_AREA_STYLE ('',( #77 ) ) ;
#140 = ORIENTED_EDGE ( 'NONE', *, *, #109, .T. ) ;
ENDSEC;
END-ISO-10303-21;
